» » »

Down, Landing On The Mountains Of Meggido Tabs (ver.2)

Artists:  A B C D E F G H I J K L M N O P Q R S T U V W X Y Z # 

Landing On The Mountains Of Meggido Tabs (ver.2)

Down Tabs
 Rating:
4/5 (4 votes)
Landing On The Mountains Of Meggido lessons Tabs too difficult? Try these video lessons and learn fast
1
                Eb|--2--5--7--5--2-2-2-|--2--5--7--5--2-2-2-|--2--5--7--5--2-2-2--|
Bb|--3--6--8--6--3-3-3-|--3--6--8--6--3-3-3-|--3--6--8--6--3-3-3--|
Gb|--2--5--7--5--2-2-2-|--2--5--7--5--2-2-2-|--2--5--7--5--2-2-2--|
Db|--0--0--0--0--0-0-0-|--0--0--0--0--0-0-0-|--0--0--0--0--0-0-0--|
Ab|--------------------|--------------------|---------------------|
Eb|--------------------|--------------------|---------------------|

Eb|-2--5--4--4-----4-----4---|-2--5--4--4-----4-----4---|
Bb|-3--6--5----5------5----5-|-3--6--5----5------5----5-|
Gb|-2--5--4------4------4----|-2--5--4------4------4----|
Db|-0--0--0------------------|-0--0--0------------------|
Ab|--------------------------|--------------------------|
Eb|--------------------------|--------------------------|
            
Submit corrections

comments powered by Disqus
↑ Back to top | Down Tabs for Landing On The Mountains Of Meggido. Lyrics for acoustic guitar and electric guitar. 1 Tablatures and chords are parodies/interpretations of the original songs. You may use it for private study, scholarship, research or language learning purposes only