>
 >
The Robot Vs The Heroin Battle Of Vietnam

The Robot Vs The Heroin Battle Of Vietnam Guitar Tabs

Dance Gavin Dance - The Robot Vs The Heroin Battle Of Vietnam chords, tabs, tablatures, lyrics

Guitar lessons | Add/correct | Request | Top 50 tabs Artists:  A B C D E F G H I J K L M N O P Q R S T U V W X Y Z 0-9

The Robot Vs The Heroin Battle Of Vietnam Guitar Tabs – Dance Gavin Dance

CD, Sheet music, Poster

Do you like The Robot Vs The Heroin Battle Of Vietnam? Share with your friends now
Tabs
this has been sitting in my computer as a guitar pro file, and i was kinda in a 
rush, so here ya go guys.

Guitar 1
     H.           Q       H         E     E    Q     
E||--------------------|-----------12----12---------|
B||--------------------|-----------17pb--17pb-------|
G||---------------3----|----------------------------|
D||---------------7----|----------------------------|
A||--------------------|----------------------------|
D||--------------------|----------------------------|


   E     E    H         E     E        E     E    H         E     E     
--12----12-------------12----12----|--12----12-------------12----12----|
--17pb--17pb-----------17pb--17pb--|--17pb--17pb-----------17pb--17pb--|
-----------------------------------|-----------------------------------|
-----------------------------------|-----------------------------------|
-----------------------------------|-----------------------------------|
-----------------------------------|-----------------------------------|


  Q     E     E    Q     E     E        E     E    E   E   E  E   E  E   
-------12----12---------12----12----|--12----12-------------------------|
-------17pb--17pb-------17pb--17pb--|--17pb--17pb-----------------------|
------------------------------------|----------------------------10--7--|
------------------------------------|-----------------10--14--0---------|
------------------------------------|-----------------------------------|
------------------------------------|-----------------------------------|


  E  Q     E  Q      E     E        E     E    H         E     E     
--------------------12----12----|--12----12-------------12----12----|
--------------------17pb--17pb--|--17pb--17pb-----------17pb--17pb--|
-----7~-------7~----------------|-----------------------------------|
--0--------0--------------------|-----------------------------------|
--------------------------------|-----------------------------------|
--------------------------------|-----------------------------------|


  Q     E     E    H            E     E     E     E     
-------12----12-------------|--18----18----18----18----|
-------17pb--17pb-----------|--21pb--21pb--21pb--21pb--|
----------------------------|--------------------------|
----------------------------|--------------------------|
----------------------------|--------------------------|
----------------------------|--------------------------|


   PM PM  PM PM  PM PM  PM PM     PM PM  PM PM  PM PM  PM PM  
   E  E   E  E   E  E   E  E      E  E   E  E   E  E   E  E   
------------------------------|------------------------------|
------------------------------|------------------------------|
--10--9---------12--9--10--9--|--10--9---------12--9--10--9--|
---------10--7----------------|---------10--7----------------|
------------------------------|------------------------------|
------------------------------|------------------------------|


   PM PM  PM PM  PM PM  PM PM     PM PM  PM PM  PM PM  PM PM  
   E  E   E  E   E  E   E  E      E  E   E  E   E  E   E  E   
------------------------------|------------------------------|
------------------------------|------------------------------|
--10--9---------12--9--10--9--|--10--9---------12--9--10--9--|
---------10--7----------------|---------10--7----------------|
------------------------------|------------------------------|
------------------------------|------------------------------|


   E  E   E  E   E  E   E  E      E  E   E  E   E  E   E  E   
------------------------------|------------------------------|
------------------------------|------------------------------|
--10--9---------12--9--10--9--|---------12--9--10--9---------|
---------10--7----------------|--10--7----------------10--7--|
------------------------------|------------------------------|
------------------------------|------------------------------|


   E  E   E  E   E  E   E  E      E  E   E  E   E  E   E  E   
------------------------------|------------------------------|
------------------------------|------------------------------|
--10--9---------12--9--10--9--|---------12--9--10--9---------|
---------10--7----------------|--10--7----------------10--7--|
------------------------------|------------------------------|
------------------------------|------------------------------|


   PM PM  PM PM  PM PM  PM PM     PM PM  PM PM  PM PM  PM PM  
   E  E   E  E   E  E   E  E      E  E   E  E   E  E   E  E   
------------------------------|------------------------------|
------------------------------|------------------------------|
--10--9---------12--9--10--9--|--10--9---------12--9--10--9--|
---------10--7----------------|---------10--7----------------|
------------------------------|------------------------------|
------------------------------|------------------------------|


   PM PM  PM PM  PM PM  PM PM     PM PM  PM PM  PM PM  PM PM  
   E  E   E  E   E  E   E  E      E  E   E  E   E  E   E  E   
------------------------------|------------------------------|
------------------------------|------------------------------|
--10--9---------12--9--10--9--|--10--9---------12--9--10--9--|
---------10--7----------------|---------10--7----------------|
------------------------------|------------------------------|
------------------------------|------------------------------|


   E  E   E  E   E  E   E  E      E  E   E  E   E  E   E  E   
------------------------------|------------------------------|
------------------------------|------------------------------|
--10--9---------12--9--10--9--|---------12--9--10--9---------|
---------10--7----------------|--10--7----------------10--7--|
------------------------------|------------------------------|
------------------------------|------------------------------|


   E  E   E  E   E  E   E  E      E  E   E  E   E  E   E  E   
------------------------------|------------------------------|
------------------------------|------------------------------|
--10--9---------12--9--10--9--|---------12--9--10--9---------|
---------10--7----------------|--10--7----------------10--7--|
------------------------------|------------------------------|
------------------------------|------------------------------|


   W                   H         H            W                 
--------------------|---------------------|--12----------------|
--------------------|--L------------------|--10----------------|
--14----------------|-----------10--------|--------------------|
--------------------|---------------------|--------------------|
--------------------|---------------------|--------------------|
--------------------|---------------------|--------------------|


   H         Q     Q         W                    H         H         
---L--------------------|----------------------|---------------------|
---L--------10----------|---10-----------------|--L------------------|
------------------10----|--(10)----------------|--L--------10--------|
------------------------|----------------------|---------------------|
------------------------|----------------------|---------------------|
------------------------|----------------------|---------------------|


   W                    H         Q     Q         W                  
--12----------------|---L--------------------|----------------------|
--10----------------|---L--------10----------|---10-----------------|
--------------------|------------------10----|--(10)----------------|
--------------------|------------------------|----------------------|
--------------------|------------------------|----------------------|
--------------------|------------------------|----------------------|


  H         H            W                    H         Q     Q     
---------------------|--12----------------|---L--------------------|
--L------------------|--10----------------|---L--------10----------|
--L--------10--------|--------------------|------------------10----|
---------------------|--------------------|------------------------|
---------------------|--------------------|------------------------|
---------------------|--------------------|------------------------|


    W                    H         H            W                 
----------------------|---------------------|--12----------------|
---10-----------------|--L------------------|--10----------------|
--(10)----------------|--L--------10--------|--------------------|
----------------------|---------------------|--------------------|
----------------------|---------------------|--------------------|
----------------------|---------------------|--------------------|


   H         Q     Q        E    E  E    E  Q     E    E   
---L--------------------|---------------------------------|
---L--------10----------|---------------------------------|
------------------10----|-----------9h--10--9-------------|
------------------------|--10h--12---------------10h--12--|
------------------------|---------------------------------|
------------------------|---------------------------------|


  E    E  Q     E    E  E    E     Q     E    E  E    E  Q     
--------------------------------|-----------------------------|
--------------------------------|-----------------------------|
--9h--10--9-------------9h--10--|--9-------------9h--10--9----|
---------------10h--12----------|-------10h--12---------------|
--------------------------------|-----------------------------|
--------------------------------|-----------------------------|


   E   E   E   E   E   E   E   E      E    E  E    E  Q     E    E   
----------------------------------|---------------------------------|
--13--13--13--------------13--13--|---------------------------------|
--------------10--10--10----------|-----------9h--10--9-------------|
----------------------------------|--10h--12---------------10h--12--|
----------------------------------|---------------------------------|
----------------------------------|---------------------------------|


  E    E  Q     E    E  E    E      E    E  E    E  Q     E    E   
--------------------------------|---------------------------------|
--------------------------------|---------------------------------|
--9h--10--9-------------9h--10--|-----------9h--10--9-------------|
---------------10h--12----------|--10h--12---------------10h--12--|
--------------------------------|---------------------------------|
--------------------------------|---------------------------------|


  E    E  Q     E    E  E    E      E   E   E   E   E   E   E   E   
--------------------------------|----------------------------------|
--------------------------------|--13--13--13--------------13--13--|
--9h--10--9-------------9h--10--|--------------10--10--10----------|
---------------10h--12----------|----------------------------------|
--------------------------------|----------------------------------|
--------------------------------|----------------------------------|


   E   E   E   E   E   E   E   E      E   E   E   E   E   E   E   E   
----------------------------------|----------------------------------|
--13--------------10--10----------|--13--13--13--------------13--13--|
------10--10--10----------10--10--|--------------10--10--10----------|
----------------------------------|----------------------------------|
----------------------------------|----------------------------------|
----------------------------------|----------------------------------|


   E   E   E   E   E   E   E   E      E    E  E    E  Q     E    E   
----------------------------------|---------------------------------|
--13--------------10--10----------|---------------------------------|
------10--10--10----------10--10--|-----------9h--10--9-------------|
----------------------------------|--10h--12---------------10h--12--|
----------------------------------|---------------------------------|
----------------------------------|---------------------------------|


  E    E  Q     E    E  E    E      E    E  E    E  Q     E    E   
--------------------------------|---------------------------------|
--------------------------------|---------------------------------|
--9h--10--9-------------9h--10--|-----------9h--10--9-------------|
---------------10h--12----------|--10h--12---------------10h--12--|
--------------------------------|---------------------------------|
--------------------------------|---------------------------------|


  E    E  Q     E    E  E    E      E   E  E   E   E   E   E   S   S  
--------------------------------|------------------------------------|
--------------------------------|--13-------------10------10--10h-11-|
--9h--10--9-------------9h--10--|------10--9--10------10-------------|
---------------10h--12----------|------------------------------------|
--------------------------------|------------------------------------|
--------------------------------|------------------------------------|


   E   E   E   E   E   E  E   E      E   E  E   E   E   E   E   E   
---------------------------------|---------------------------------|
--10------10------10-------------|--13-------------10------10------|
------10------10------10--9--10--|------10--9--10------10------10--|
---------------------------------|---------------------------------|
---------------------------------|---------------------------------|
---------------------------------|---------------------------------|


   E   E   E   S   S  S  S  S  S  S  S  S  S     W                 
---------------------------------------------|--------------------|
--10------10--10h-11-10-10-10-10-10-10-10-10-|--13----------------|
------10-------------------------------------|--------------------|
---------------------------------------------|--------------------|
---------------------------------------------|--------------------|
---------------------------------------------|--------------------|


  W                   W                   W                 
-------------------|-------------------|-------------------|
--L----------------|--L----------------|--L----------------|
-------------------|-------------------|-------------------|
-------------------|-------------------|-------------------|
-------------------|-------------------|-------------------|
-------------------|-------------------|-------------------|


  E   E  E   E  E   E  E   E      E   E   E   E   E   E   E   E   
--8------8------8------8------|--12------12------12------12------|
-----10-----10-----10-----10--|------13------13------13------13--|
------------------------------|----------------------------------|
------------------------------|----------------------------------|
------------------------------|----------------------------------|
------------------------------|----------------------------------|


  E   E  E   E  E   E  E   E      E   E   E   E   E   E   E   E   
--8------8------8------8------|--12------12------12------12------|
-----10-----10-----10-----10--|------13------13------13------13--|
------------------------------|----------------------------------|
------------------------------|----------------------------------|
------------------------------|----------------------------------|
------------------------------|----------------------------------|


  E   E  E   E  E   E  E   E      E   E   E   E   E   E   E   E   
--8------8------8------8------|--12------12------12------12------|
-----10-----10-----10-----10--|------13------13------13------13--|
------------------------------|----------------------------------|
------------------------------|----------------------------------|
------------------------------|----------------------------------|
------------------------------|----------------------------------|


  E   E  E   E  E   E  E   E      E   E   E   E   E   E   E   E   
--8------8------8------8------|--12------12------12------12------|
-----10-----10-----10-----10--|------13------13------13------13--|
------------------------------|----------------------------------|
------------------------------|----------------------------------|
------------------------------|----------------------------------|
------------------------------|----------------------------------|


  E   E  E   E  E   E  E   E      E   E   E   E   E   E   E   E   
--8------8------8------8------|--12------12------12------12------|
-----10-----10-----10-----10--|------13------13------13------13--|
------------------------------|----------------------------------|
------------------------------|----------------------------------|
------------------------------|----------------------------------|
------------------------------|----------------------------------|


  E   E  E   E  E   E  E   E      E   E   E   E   E   E   E   E   
--8------8------8------8------|--12------12------12------12------|
-----10-----10-----10-----10--|------13------13------13------13--|
------------------------------|----------------------------------|
------------------------------|----------------------------------|
------------------------------|----------------------------------|
------------------------------|----------------------------------|


  E   E  E   E  E   E  E   E      E   E   E   E   E   E   E   E   
--8------8------8------8------|--12------12------12------12------|
-----10-----10-----10-----10--|------13------13------13------13--|
------------------------------|----------------------------------|
------------------------------|----------------------------------|
------------------------------|----------------------------------|
------------------------------|----------------------------------|


  E   E  E   E  E   E  E   E      E   E   E   E   E   E   E   E   
--8------8------8------8------|--12------12------12------12------|
-----10-----10-----10-----10--|------13------13------13------13--|
------------------------------|----------------------------------|
------------------------------|----------------------------------|
------------------------------|----------------------------------|
------------------------------|----------------------------------|


    E     E     E     E   Q      E     E        E     E   H        Q     
--(13)---13---(13)---12--------(13)---13---|--(13)---12-----------------|
---13---(13)---13---(13)--------13---(13)--|---13---(13)----------------|
-------------------------------------------|----------------------------|
-------------------------------------------|----------------------------|
-------------------------------------------|----------------------------|
-------------------------------------------|----------------------------|


   E    E  E    E  Q     E    E     E    E  Q     E    E  E    E   
---------------------------------|--------------------------------|
---------------------------------|--------------------------------|
-----------9h--10--9-------------|--9h--10--9-------------9h--10--|
--10h--12---------------10h--12--|---------------10h--12----------|
---------------------------------|--------------------------------|
---------------------------------|--------------------------------|


   E    E  E    E  Q     E    E     E    E  Q     E    E  E    E   
---------------------------------|--------------------------------|
---------------------------------|--------------------------------|
-----------9h--10--9-------------|--9h--10--9-------------9h--10--|
--10h--12---------------10h--12--|---------------10h--12----------|
---------------------------------|--------------------------------|
---------------------------------|--------------------------------|


   E   E   E   E   E   E   E   E      E   E   E   E   E   E   E   E   
----------------------------------|----------------------------------|
--13--13--13--------------13--13--|--13--------------10--10----------|
--------------10--10--10----------|------10--10--10----------10--10--|
----------------------------------|----------------------------------|
----------------------------------|----------------------------------|
----------------------------------|----------------------------------|


   E   E   E   E   E   E   E   E      E   E   E   E   E   E   E   E   
----------------------------------|----------------------------------|
--13--13--13--------------13--13--|--13--------------10--10----------|
--------------10--10--10----------|------10--10--10----------10--10--|
----------------------------------|----------------------------------|
----------------------------------|----------------------------------|
----------------------------------|----------------------------------|


   E    E  E    E  Q     E    E     E    E  Q     E    E  E    E   
---------------------------------|--------------------------------|
---------------------------------|--------------------------------|
-----------9h--10--9-------------|--9h--10--9-------------9h--10--|
--10h--12---------------10h--12--|---------------10h--12----------|
---------------------------------|--------------------------------|
---------------------------------|--------------------------------|


   E    E  E    E  Q     E    E     E    E  Q     E    E  E    E   
---------------------------------|--------------------------------|
---------------------------------|--------------------------------|
-----------9h--10--9-------------|--9h--10--9-------------9h--10--|
--10h--12---------------10h--12--|---------------10h--12----------|
---------------------------------|--------------------------------|
---------------------------------|--------------------------------|


   E   E  E   E   E   E   E   S   S     E   E   E   E  E   E  E   E   
------------------------------------|--------------------------------|
--13-------------10------10--10h-11-|--10------10--------------------|
------10--9--10------10-------------|------10------10--9--10--9--10--|
------------------------------------|--------------------------------|
------------------------------------|--------------------------------|
------------------------------------|--------------------------------|


   E   E  E   E   E   E   E   E      E   E   E   E   E   E  E   E   
---------------------------------|---------------------------------|
--13-------------10------10------|--10------10------10-------------|
------10--9--10------10------10--|------10------10------10--9--10--|
---------------------------------|---------------------------------|
---------------------------------|---------------------------------|
---------------------------------|---------------------------------|


  PM PM PM PM PM PM        PM PM PM PM    PM        PM PM PM PM PM PM PM PM PM  
  S  S  S  S  E  E  E   E  S  S  S  S     E  E   E  E  S  S  S  S  S  S  S  S   
---------------------------------------|---------------------------------------|
---------------------------------------|---------------------------------------|
---------------------------------------|---------------------------------------|
---------------------------------------|---------------------------------------|
--------------------8p--7--------------|-----8p--7-----------------------------|
--0--0--0--0--0--0---------0--0--0--0--|--0---------0--0--0--0--0--0--0--0--0--|


  PM PM PM PM PM PM        PM PM PM PM    PM        PM PM PM PM PM PM PM PM PM  
  S  S  S  S  E  E  E   E  S  S  S  S     E  E   E  E  S  S  S  S  S  S  S  S   
---------------------------------------|---------------------------------------|
---------------------------------------|---------------------------------------|
---------------------------------------|---------------------------------------|
---------------------------------------|---------------------------------------|
--------------------8p--7--------------|-----8p--7-----------------------------|
--0--0--0--0--0--0---------0--0--0--0--|--0---------0--0--0--0--0--0--0--0--0--|


  PM PM PM PM PM PM        PM PM PM PM    PM        PM PM PM PM PM PM PM PM PM  
  S  S  S  S  E  E  E   E  S  S  S  S     E  E   E  E  S  S  S  S  S  S  S  S   
---------------------------------------|---------------------------------------|
---------------------------------------|---------------------------------------|
---------------------------------------|---------------------------------------|
---------------------------------------|---------------------------------------|
--------------------8p--7--------------|-----8p--7-----------------------------|
--8--8--8--8--8--8---------8--8--8--8--|--8---------8--8--8--8--8--8--8--8--8--|


  PM PM PM PM PM PM        PM PM PM PM    PM        PM PM PM PM PM PM PM PM PM  
  S  S  S  S  E  E  E   E  S  S  S  S     E  E   E  E  S  S  S  S  S  S  S  S   
---------------------------------------|---------------------------------------|
---------------------------------------|---------------------------------------|
---------------------------------------|---------------------------------------|
---------------------------------------|---------------------------------------|
--------------------8p--7--------------|-----8p--7-----------------------------|
--8--8--8--8--8--8---------8--8--8--8--|--8---------8--8--8--8--8--8--8--8--8--|


  PM PM PM PM PM PM        PM PM PM PM    PM        PM PM PM PM PM PM PM PM PM  
  S  S  S  S  E  E  E   E  S  S  S  S     E  E   E  E  S  S  S  S  S  S  S  S   
---------------------------------------|---------------------------------------|
---------------------------------------|---------------------------------------|
---------------------------------------|---------------------------------------|
---------------------------------------|---------------------------------------|
--------------------8p--7--------------|-----8p--7-----------------------------|
--0--0--0--0--0--0---------0--0--0--0--|--0---------0--0--0--0--0--0--0--0--0--|


  PM PM PM PM PM PM        PM PM PM PM    PM        PM PM PM PM PM PM PM PM PM  
  S  S  S  S  E  E  E   E  S  S  S  S     E  E   E  E  S  S  S  S  S  S  S  S   
---------------------------------------|---------------------------------------|
---------------------------------------|---------------------------------------|
---------------------------------------|---------------------------------------|
---------------------------------------|---------------------------------------|
--------------------8p--7--------------|-----8p--7-----------------------------|
--0--0--0--0--0--0---------0--0--0--0--|--0---------0--0--0--0--0--0--0--0--0--|


  PM PM PM PM PM PM        PM PM PM PM    PM        PM PM PM PM PM PM PM PM PM  
  S  S  S  S  E  E  E   E  S  S  S  S     E  E   E  E  S  S  S  S  S  S  S  S   
---------------------------------------|---------------------------------------|
---------------------------------------|---------------------------------------|
---------------------------------------|---------------------------------------|
---------------------------------------|---------------------------------------|
--------------------8p--7--------------|-----8p--7-----------------------------|
--8--8--8--8--8--8---------8--8--8--8--|--8---------8--8--8--8--8--8--8--8--8--|


  PM PM PM PM PM PM                                               
  S  S  S  S  E  E  E   E  E    E      E   E  E   E    H          
-----------------------------------|-----------------------------|
-----------------------------------|-----------------------------|
-----------------------------------|--12--10--9--10--<>9~--------|
---------------------------7s--10--|-----------------------------|
--------------------8p--7----------|-----------------------------|
--8--8--8--8--8--8-----------------|-----------------------------|


   E  E   E   E  E   E  E   E     E   E   E   E   E   E   E   E   
-------------------------------|-------------------------12------|
---------13----------------10--|---------13------13----------13--|
--10--9------10--9--10--9------|--9--10------10------10----------|
-------------------------------|---------------------------------|
-------------------------------|---------------------------------|
-------------------------------|---------------------------------|


  E   E   E   E  E   E  E   E      E    E   E   E   E   E   E   E   
-------------------------------|---------------------------12------|
---------13----------------10--|---L-------13------13----------13--|
--9--10------10--9--10--9------|--(9)--10------10------10----------|
-------------------------------|-----------------------------------|
-------------------------------|-----------------------------------|
-------------------------------|-----------------------------------|


  E   E   E   E  E   E  E   E     E   E   E   E   E   E   E   E   
-------------------------------|-------------------------12------|
---------13----------------10--|---------13------13----------13--|
--9--10------10--9--10--9------|--9--10------10------10----------|
-------------------------------|---------------------------------|
-------------------------------|---------------------------------|
-------------------------------|---------------------------------|


  E   E   E   E  E   E  E   E     E   E   E   E   E   E   E   E   
-------------------------------|-------------------------12------|
---------13----------------10--|--L------13------13----------13--|
--9--10------10--9--10--9------|-----10------10------10----------|
-------------------------------|---------------------------------|
-------------------------------|---------------------------------|
-------------------------------|---------------------------------|


  W                   W                   W                  
-------------------|-------------------|-------------------||
-------------------|-------------------|-------------------||
-------------------|-------------------|-------------------||
-------------------|-------------------|-------------------||
-------------------|-------------------|-------------------||
-------------------|-------------------|-------------------||

Guitar 2
     W                   E  E  E  E  Q    E  E     Q    E  E  E  E  Q     
E||-------------------|-------------------------|------------------------|
B||-------------------|-------------------------|------------------------|
G||-------------------|-------------------------|------------------------|
D||-------------------|--3--3--3--3-------3--3--|-------3--3--3--3-------|
A||-------------------|--3--3--3--3-------3--3--|-------3--3--3--3-------|
D||-------------------|--3--3--3--3-------3--3--|-------3--3--3--3-------|


  Q     E    E    E    E   Q        E    E   Q     E    E   Q     
--------------------------------|--------------------------------|
--------------------------------|--------------------------------|
-------(2)--(2)--(2)--(2)-------|--(2)--(2)-------(2)--(2)-------|
--------3----3----3----3--------|---3----3---------3----3--------|
--------3----3----3----3--------|---3----3---------3----3--------|
--------3----3----3----3--------|---3----3---------3----3--------|


       PM PM PM     PM PM PM        PM PM PM     PM PM PM           
  Q    S  S  S  E.  S  S  S  E.     S  S  S  E.  S  S  S  Q.     S  
---------------------------------|---------------------------------|
---------------------------------|---------------------------------|
---------------------------------|---------------------------------|
-------0--0--0------0--0--0------|--0--0--0------0--0--0-----------|
-------0--0--0------0--0--0------|--0--0--0------0--0--0-----------|
-------0--0--0------0--0--0------|--0--0--0------0--0--0-----------|


  Q    E  E  E  E  Q       E  E  Q    E  E  E  E     H         
------------------------|-------------------------|-----------|
------------------------|-------------------------|-----------|
------------------------|-------------------------|-----------|
-------0--0--0--0-------|--0--0-------0--0--0--0--|-----------|
-------0--0--0--0-------|--0--0-------0--0--0--0--|-----------|
-------0--0--0--0-------|--0--0-------0--0--0--0--|-----------|


  PM PM PM   PM   PM PM                            PM PM PM    PM    PM  PM     
  S  S  Q    Q    E  E  E     W                    S  S  Q     Q     E   E  E   
---------------------------|-------------------|-------------------------------|
---------------------------|-------------------|-------------------------------|
---------------------------|-------------------|-------------------------------|
--8--8--8----8----8--8-----|-------------------|--10-10-10----10----10--10-----|
--8--8--8----8----8--8-----|-------------------|--10-10-10----10----10--10-----|
--8--8--8----8----8--8-----|-------------------|--10-10-10----10----10--10-----|


                      PM PM PM   PM   PM PM                         
  W                   S  S  Q    Q    E  E  E     W                 
-------------------|---------------------------|-------------------|
-------------------|---------------------------|-------------------|
-------------------|---------------------------|-------------------|
-------------------|--0--0--0----0----0--0-----|-------------------|
-------------------|--0--0--0----0----0--0-----|-------------------|
-------------------|--0--0--0----0----0--0-----|-------------------|


  PM PM PM   PM   PM PM                           PM PM PM   PM   PM PM     
  S  S  Q    Q    E  E  E     W                   S  S  Q    Q    E  E  E   
---------------------------|-------------------|---------------------------|
---------------------------|-------------------|---------------------------|
---------------------------|-------------------|---------------------------|
--0--0--0----0----0--0-----|-------------------|--8--8--8----8----8--8-----|
--0--0--0----0----0--0-----|-------------------|--8--8--8----8----8--8-----|
--0--0--0----0----0--0-----|-------------------|--8--8--8----8----8--8-----|


                       PM PM PM    PM    PM  PM                         
  W                    S  S  Q     Q     E   E  E     W                 
-------------------|-------------------------------|-------------------|
-------------------|-------------------------------|-------------------|
-------------------|-------------------------------|-------------------|
-------------------|--10-10-10----10----10--10-----|-------------------|
-------------------|--10-10-10----10----10--10-----|-------------------|
-------------------|--10-10-10----10----10--10-----|-------------------|


  PM PM PM   PM   PM PM                           PM PM PM   PM   PM PM     
  S  S  Q    Q    E  E  E     W                   S  S  Q    Q    E  E  E   
---------------------------|-------------------|---------------------------|
---------------------------|-------------------|---------------------------|
---------------------------|-------------------|---------------------------|
--0--0--0----0----0--0-----|-------------------|--0--0--0----0----0--0-----|
--0--0--0----0----0--0-----|-------------------|--0--0--0----0----0--0-----|
--0--0--0----0----0--0-----|-------------------|--0--0--0----0----0--0-----|


                      ^  v  ^  v  ^  v  ^  v     ^  v  ^  v  ^  v  ^  v   
  W                   E  E  E  E  E  E  E  E     E  E  E  E  E  E  E  E   
-------------------|--------------------------|--------------------------|
-------------------|--------------------------|--------------------------|
-------------------|--9--9--9--9--9--9--9--9--|--9--9--9--9--9--9--9--9--|
-------------------|--7--7--7--7--7--7--7--7--|--7--7--7--7--7--7--7--7--|
-------------------|--7--7--7--7--7--7--7--7--|--7--7--7--7--7--7--7--7--|
-------------------|--------------------------|--------------------------|


   ^   v   ^   v   ^   v   ^   v      ^   v   ^   v   ^   v   ^   v   
   E   E   E   E   E   E   E   E      E   E   E   E   E   E   E   E   
----------------------------------|----------------------------------|
----------------------------------|----------------------------------|
--10--10--10--10--10--10--10--10--|--10--10--10--10--10--10--10--10--|
---7---7---7---7---7---7---7---7--|---7---7---7---7---7---7---7---7--|
---8---8---8---8---8---8---8---8--|---8---8---8---8---8---8---8---8--|
----------------------------------|----------------------------------|


  ^  v  ^  v  ^  v  ^  v     ^  v  ^  v  ^  v  ^  v   
  E  E  E  E  E  E  E  E     E  E  E  E  E  E  E  E   
--------------------------|--------------------------|
--------------------------|--------------------------|
--9--9--9--9--9--9--9--9--|--9--9--9--9--9--9--9--9--|
--7--7--7--7--7--7--7--7--|--7--7--7--7--7--7--7--7--|
--7--7--7--7--7--7--7--7--|--7--7--7--7--7--7--7--7--|
--------------------------|--------------------------|


   ^   v   ^   v   ^   v   ^   v      ^   v   ^   v   ^   v   ^   v   
   E   E   E   E   E   E   E   E      E   E   E   E   E   E   E   E   
----------------------------------|----------------------------------|
----------------------------------|----------------------------------|
--10--10--10--10--10--10--10--10--|--10--10--10--10--10--10--10--10--|
---7---7---7---7---7---7---7---7--|---7---7---7---7---7---7---7---7--|
---8---8---8---8---8---8---8---8--|---8---8---8---8---8---8---8---8--|
----------------------------------|----------------------------------|


  ^  v  ^  v  ^  v  ^  v     ^  v  ^  v  ^  v  ^  v   
  E  E  E  E  E  E  E  E     E  E  E  E  E  E  E  E   
--------------------------|--------------------------|
--------------------------|--------------------------|
--9--9--9--9--9--9--9--9--|--9--9--9--9--9--9--9--9--|
--7--7--7--7--7--7--7--7--|--7--7--7--7--7--7--7--7--|
--7--7--7--7--7--7--7--7--|--7--7--7--7--7--7--7--7--|
--------------------------|--------------------------|


   ^   v   ^   v   ^   v   ^   v      ^   v   ^   v   ^   v   ^   v   
   E   E   E   E   E   E   E   E      E   E   E   E   E   E   E   E   
----------------------------------|----------------------------------|
----------------------------------|----------------------------------|
--10--10--10--10--10--10--10--10--|--10--10--10--10--10--10--10--10--|
---7---7---7---7---7---7---7---7--|---7---7---7---7---7---7---7---7--|
---8---8---8---8---8---8---8---8--|---8---8---8---8---8---8---8---8--|
----------------------------------|----------------------------------|


  ^  v  ^  v  ^  v  ^  v     ^  v  ^  v  ^  v  ^  v   
  E  E  E  E  E  E  E  E     E  E  E  E  E  E  E  E   
--------------------------|--------------------------|
--------------------------|--------------------------|
--9--9--9--9--9--9--9--9--|--9--9--9--9--9--9--9--9--|
--7--7--7--7--7--7--7--7--|--7--7--7--7--7--7--7--7--|
--7--7--7--7--7--7--7--7--|--7--7--7--7--7--7--7--7--|
--------------------------|--------------------------|


   ^   v   ^   v   ^   v   ^   v      ^   v   ^   v   ^   v   ^   v   
   E   E   E   E   E   E   E   E      E   E   E   E   E   E   E   E   
----------------------------------|----------------------------------|
----------------------------------|----------------------------------|
--10--10--10--10--10--10--10--10--|--10--10--10--10--10--10--10--10--|
---7---7---7---7---7---7---7---7--|---7---7---7---7---7---7---7---7--|
---8---8---8---8---8---8---8---8--|---8---8---8---8---8---8---8---8--|
----------------------------------|----------------------------------|


  W                   W                   W                   W                 
-------------------|-------------------|-------------------|-------------------|
-------------------|-------------------|-------------------|-------------------|
-------------------|-------------------|-------------------|-------------------|
--0----------------|--L----------------|--L----------------|--L----------------|
--0----------------|--L----------------|--L----------------|--L----------------|
--0----------------|--L----------------|--L----------------|--L----------------|


  E  E  E  E  E  E  E  E     E  E  E  E  E  E  E  E   
--------------------------|--------------------------|
--------------------------|--------------------------|
--------------------------|--------------------------|
--0--0--0--0--0--0--0--0--|--0--0--0--0--0--0--0--0--|
--0--0--0--0--0--0--0--0--|--0--0--0--0--0--0--0--0--|
--0--0--0--0--0--0--0--0--|--0--0--0--0--0--0--0--0--|


   E   E   E   E   E   E   E   E      E   E   E   E   E   E   E   E   
----------------------------------|----------------------------------|
----------------------------------|----------------------------------|
----------------------------------|----------------------------------|
--10--10--10--10--10--10--10--10--|--10--10--10--10--10--10--10--10--|
---8---8---8---8---8---8---8---8--|---8---8---8---8---8---8---8---8--|
---8---8---8---8---8---8---8---8--|---8---8---8---8---8---8---8---8--|


   E   E   E   E   E   E   E   E      E   E   E   E   E   E   E   E   
----------------------------------|----------------------------------|
----------------------------------|----------------------------------|
----------------------------------|----------------------------------|
--10--10--10--10--10--10--10--10--|--10--10--10--10--10--10--10--10--|
--10--10--10--10--10--10--10--10--|--10--10--10--10--10--10--10--10--|
--10--10--10--10--10--10--10--10--|--10--10--10--10--10--10--10--10--|


  PM PM PM     PM PM PM        PM PM PM PM PM PM PM PM PM PM PM PM PM PM PM PM  
  S  S  Q.     S  S  Q.        S  S  S  S  S  S  S  S  S  S  S  S  S  S  S  S   
----------------------------|--------------------------------------------------|
----------------------------|--------------------------------------------------|
----------------------------|--------------------------------------------------|
--7--7--7------7--7--7------|--8--8--8--8--8--8--8--8--8--8--8--8--8--8--8--8--|
--7--7--7------7--7--7------|--8--8--8--8--8--8--8--8--8--8--8--8--8--8--8--8--|
--7--7--7------7--7--7------|--8--8--8--8--8--8--8--8--8--8--8--8--8--8--8--8--|


  E  E  E  E  E  E  E  E     E  E  E  E  E  E  E  E   
--------------------------|--------------------------|
--------------------------|--------------------------|
--------------------------|--------------------------|
--0--0--0--0--0--0--0--0--|--0--0--0--0--0--0--0--0--|
--0--0--0--0--0--0--0--0--|--0--0--0--0--0--0--0--0--|
--0--0--0--0--0--0--0--0--|--0--0--0--0--0--0--0--0--|


  E  E  E  E  E  E  E  E     E  E  E  E  E  E  E  E   
--------------------------|--------------------------|
--------------------------|--------------------------|
--------------------------|--------------------------|
--8--8--8--8--8--8--8--8--|--8--8--8--8--8--8--8--8--|
--8--8--8--8--8--8--8--8--|--8--8--8--8--8--8--8--8--|
--8--8--8--8--8--8--8--8--|--8--8--8--8--8--8--8--8--|


   E   E   E   E   E   E   E   E      E   E   E   E   E   E   E   E   
----------------------------------|----------------------------------|
----------------------------------|----------------------------------|
----------------------------------|----------------------------------|
--10--10--10--10--10--10--10--10--|--10--10--10--10--10--10--10--10--|
--10--10--10--10--10--10--10--10--|--10--10--10--10--10--10--10--10--|
--10--10--10--10--10--10--10--10--|--10--10--10--10--10--10--10--10--|


  PM PM PM     PM PM PM        PM PM PM PM PM PM PM PM PM PM PM PM PM PM PM PM  
  S  S  Q.     S  S  Q.        S  S  S  S  S  S  S  S  S  S  S  S  S  S  S  S   
----------------------------|--------------------------------------------------|
----------------------------|--------------------------------------------------|
----------------------------|--------------------------------------------------|
--7--7--7------7--7--7------|--8--8--8--8--8--8--8--8--8--8--8--8--8--8--8--8--|
--7--7--7------7--7--7------|--8--8--8--8--8--8--8--8--8--8--8--8--8--8--8--8--|
--7--7--7------7--7--7------|--8--8--8--8--8--8--8--8--8--8--8--8--8--8--8--8--|


  W                   W                   W                   W                 
-------------------|-------------------|-------------------|-------------------|
-------------------|-------------------|-------------------|-------------------|
-------------------|-------------------|-------------------|-------------------|
--0----------------|--L----------------|--L----------------|--L----------------|
--0----------------|--L----------------|--L----------------|--L----------------|
--0----------------|--L----------------|--L----------------|--L----------------|


  E   E  E  E  E  E  E  E     E   E  E  E  E  E  E  E   
---------------------------|---------------------------|
---------------------------|---------------------------|
---------------------------|---------------------------|
--3s--7--7--7--7--7--7--7--|--7s--3--3--3--3--3--3--3--|
---------------------------|---------------------------|
---------------------------|---------------------------|


  E   E  E  E  E  E  E  E     E   E  E  E  E  E  E  E   
---------------------------|---------------------------|
---------------------------|---------------------------|
---------------------------|---------------------------|
--3s--7--7--7--7--7--7--7--|--7s--3--3--3--3--3--3--3--|
---------------------------|---------------------------|
---------------------------|---------------------------|


  E    E   E   E   E   E   E   E      E   E  E  E  E  E  E  E   
----------------------------------|----------------------------|
----------------------------------|----------------------------|
----------------------------------|----------------------------|
--3s--12--12--12--12--12--12--12--|--12s--7--7--7--7--7--7--7--|
----------------------------------|----------------------------|
----------------------------------|----------------------------|


  E    E   E   E   E   E   E   E      E   E  E  E  E  E  E   E   
----------------------------------|-----------------------------|
----------------------------------|-----------------------------|
----------------------------------|-----------------------------|
--7s--12--12--12--12--12--12--12--|--12s--7--7--7--7--7--7s--3--|
----------------------------------|-----------------------------|
----------------------------------|-----------------------------|


  E   E  E  E  E  E  E  E     E   E  E  E  E  E  E  E   
---------------------------|---------------------------|
---------------------------|---------------------------|
---------------------------|---------------------------|
--3s--7--7--7--7--7--7--7--|--7s--3--3--3--3--3--3--3--|
---------------------------|---------------------------|
---------------------------|---------------------------|


  E   E  E  E  E  E  E  E     E   E   E   E   E   E   E   E   
---------------------------|---------------------------------|
---------------------------|---------------------------------|
---------------------------|-----12--12--12--12--10--10--10--|
--3s--7--7--7--7--7--7--7--|--7------------------------------|
---------------------------|---------------------------------|
---------------------------|---------------------------------|


   E  E   E   E   E   E   E   E      E   E  E  E  E  E  E  E   
---------------------------------|----------------------------|
---------------------------------|----------------------------|
--10-----------------------------|----------------------------|
------9--12--12--12--12--12--12--|--12s--7--7--7--7--7--7--7--|
---------------------------------|----------------------------|
---------------------------------|----------------------------|


  E    E   E   E   E   E   E   E      E    E   E   E   E   E   E   E   
----------------------------------|-----------------------------------|
----------------------------------|-----------------------------------|
----------------------------------|-----------------------------------|
--7s--12--12--12--12--12--12--12--|--12s--14--14--14--14--14--14--14--|
----------------------------------|-----------------------------------|
----------------------------------|-----------------------------------|


                                                               PM PM PM PM  
    E     E     E     E   Q      E     E        E     E   Q    E  E  E  E   
--(13)---13---(13)---12--------(13)---13---|--(13)---12--------------------|
---13---(13)---13---(13)--------13---(13)--|---13---(13)-------------------|
-------------------------------------------|-------------------------------|
-------------------------------------------|-------------------0--0--0--0--|
-------------------------------------------|-------------------0--0--0--0--|
-------------------------------------------|-------------------0--0--0--0--|


  E  E  E  E  E  E  E  E     E  E  E  E  E  E  E  E   
--------------------------|--------------------------|
--------------------------|--------------------------|
--------------------------|--------------------------|
--0--0--0--0--0--0--0--0--|--0--0--0--0--0--0--0--0--|
--0--0--0--0--0--0--0--0--|--0--0--0--0--0--0--0--0--|
--0--0--0--0--0--0--0--0--|--0--0--0--0--0--0--0--0--|


   E   E   E   E   E   E   E   E      E   E   E   E   E   E   E   E   
----------------------------------|----------------------------------|
----------------------------------|----------------------------------|
----------------------------------|----------------------------------|
--10--10--10--10--10--10--10--10--|--10--10--10--10--10--10--10--10--|
---8---8---8---8---8---8---8---8--|---8---8---8---8---8---8---8---8--|
---8---8---8---8---8---8---8---8--|---8---8---8---8---8---8---8---8--|


   E   E   E   E   E   E   E   E      E   E   E   E   E   E   E   E   
----------------------------------|----------------------------------|
----------------------------------|----------------------------------|
----------------------------------|----------------------------------|
--10--10--10--10--10--10--10--10--|--10--10--10--10--10--10--10--10--|
--10--10--10--10--10--10--10--10--|--10--10--10--10--10--10--10--10--|
--10--10--10--10--10--10--10--10--|--10--10--10--10--10--10--10--10--|


  PM PM PM     PM PM PM        PM PM PM PM PM PM PM PM PM PM PM PM PM PM PM PM  
  S  S  Q.     S  S  Q.        S  S  S  S  S  S  S  S  S  S  S  S  S  S  S  S   
----------------------------|--------------------------------------------------|
----------------------------|--------------------------------------------------|
----------------------------|--------------------------------------------------|
--7--7--7------7--7--7------|--8--8--8--8--8--8--8--8--8--8--8--8--8--8--8--8--|
--7--7--7------7--7--7------|--8--8--8--8--8--8--8--8--8--8--8--8--8--8--8--8--|
--7--7--7------7--7--7------|--8--8--8--8--8--8--8--8--8--8--8--8--8--8--8--8--|


  E  E  E  E  E  E  E  E     E  E  E  E  E  E  E  E   
--------------------------|--------------------------|
--------------------------|--------------------------|
--------------------------|--------------------------|
--0--0--0--0--0--0--0--0--|--0--0--0--0--0--0--0--0--|
--0--0--0--0--0--0--0--0--|--0--0--0--0--0--0--0--0--|
--0--0--0--0--0--0--0--0--|--0--0--0--0--0--0--0--0--|


  E  E  E  E  E  E  E  E     E  E  E  E  E  E  E  E   
--------------------------|--------------------------|
--------------------------|--------------------------|
--------------------------|--------------------------|
--8--8--8--8--8--8--8--8--|--8--8--8--8--8--8--8--8--|
--8--8--8--8--8--8--8--8--|--8--8--8--8--8--8--8--8--|
--8--8--8--8--8--8--8--8--|--8--8--8--8--8--8--8--8--|


   E   E   E   E   E   E   E   E      E   E   E   E   E   E   E   E   
----------------------------------|----------------------------------|
----------------------------------|----------------------------------|
----------------------------------|----------------------------------|
--10--10--10--10--10--10--10--10--|--10--10--10--10--10--10--10--10--|
--10--10--10--10--10--10--10--10--|--10--10--10--10--10--10--10--10--|
--10--10--10--10--10--10--10--10--|--10--10--10--10--10--10--10--10--|


  PM PM PM     PM PM PM        PM PM PM PM PM PM PM PM PM PM PM PM PM PM PM PM  
  S  S  Q.     S  S  Q.        S  S  S  S  S  S  S  S  S  S  S  S  S  S  S  S   
----------------------------|--------------------------------------------------|
----------------------------|--------------------------------------------------|
----------------------------|--------------------------------------------------|
--7--7--7------7--7--7------|--8--8--8--8--8--8--8--8--8--8--8--8--8--8--8--8--|
--7--7--7------7--7--7------|--8--8--8--8--8--8--8--8--8--8--8--8--8--8--8--8--|
--7--7--7------7--7--7------|--8--8--8--8--8--8--8--8--8--8--8--8--8--8--8--8--|


  PM PM PM PM PM PM        PM PM PM PM    PM        PM PM PM PM PM PM PM PM PM  
  S  S  S  S  E  E  E   E  S  S  S  S     E  E   E  E  S  S  S  S  S  S  S  S   
---------------------------------------|---------------------------------------|
---------------------------------------|---------------------------------------|
---------------------------------------|---------------------------------------|
---------------------------------------|---------------------------------------|
--------------------8p--7--------------|-----8p--7-----------------------------|
--0--0--0--0--0--0---------0--0--0--0--|--0---------0--0--0--0--0--0--0--0--0--|


  PM PM PM PM PM PM        PM PM PM PM    PM        PM PM PM PM PM PM PM PM PM  
  S  S  S  S  E  E  E   E  S  S  S  S     E  E   E  E  S  S  S  S  S  S  S  S   
---------------------------------------|---------------------------------------|
---------------------------------------|---------------------------------------|
---------------------------------------|---------------------------------------|
---------------------------------------|---------------------------------------|
--------------------8p--7--------------|-----8p--7-----------------------------|
--0--0--0--0--0--0---------0--0--0--0--|--0---------0--0--0--0--0--0--0--0--0--|


  PM PM PM PM PM PM        PM PM PM PM    PM        PM PM PM PM PM PM PM PM PM  
  S  S  S  S  E  E  E   E  S  S  S  S     E  E   E  E  S  S  S  S  S  S  S  S   
---------------------------------------|---------------------------------------|
---------------------------------------|---------------------------------------|
---------------------------------------|---------------------------------------|
---------------------------------------|---------------------------------------|
--------------------8p--7--------------|-----8p--7-----------------------------|
--8--8--8--8--8--8---------8--8--8--8--|--8---------8--8--8--8--8--8--8--8--8--|


  PM PM PM PM PM PM        PM PM PM PM    PM        PM PM PM PM PM PM PM PM PM  
  S  S  S  S  E  E  E   E  S  S  S  S     E  E   E  E  S  S  S  S  S  S  S  S   
---------------------------------------|---------------------------------------|
---------------------------------------|---------------------------------------|
---------------------------------------|---------------------------------------|
---------------------------------------|---------------------------------------|
--------------------8p--7--------------|-----8p--7-----------------------------|
--8--8--8--8--8--8---------8--8--8--8--|--8---------8--8--8--8--8--8--8--8--8--|


  PM PM PM PM PM PM        PM PM PM PM    PM        PM PM PM PM PM PM PM PM PM  
  S  S  S  S  E  E  E   E  S  S  S  S     E  E   E  E  S  S  S  S  S  S  S  S   
---------------------------------------|---------------------------------------|
---------------------------------------|---------------------------------------|
---------------------------------------|---------------------------------------|
--------------------5h--7--------------|-----5h--7-----------------------------|
---------------------------------------|---------------------------------------|
--0--0--0--0--0--0---------0--0--0--0--|--0---------0--0--0--0--0--0--0--0--0--|


  PM PM PM PM PM PM        PM PM PM PM    PM        PM PM PM PM PM PM PM PM PM  
  S  S  S  S  E  E  E   E  S  S  S  S     E  E   E  E  S  S  S  S  S  S  S  S   
---------------------------------------|---------------------------------------|
---------------------------------------|---------------------------------------|
---------------------------------------|---------------------------------------|
--------------------5h--7--------------|-----5h--7-----------------------------|
---------------------------------------|---------------------------------------|
--0--0--0--0--0--0---------0--0--0--0--|--0---------0--0--0--0--0--0--0--0--0--|


  PM PM PM PM PM PM        PM PM PM PM    PM        PM PM PM PM PM PM PM PM PM  
  S  S  S  S  E  E  E   E  S  S  S  S     E  E   E  E  S  S  S  S  S  S  S  S   
---------------------------------------|---------------------------------------|
---------------------------------------|---------------------------------------|
---------------------------------------|---------------------------------------|
--------------------5h--7--------------|-----5h--7-----------------------------|
---------------------------------------|---------------------------------------|
--8--8--8--8--8--8---------8--8--8--8--|--8---------8--8--8--8--8--8--8--8--8--|


  PM PM PM PM PM PM                                             
  S  S  S  S  E  E  E   E  E    E      E  E  E  E    H          
-----------------------------------|---------------------------|
-----------------------------------|---------------------------|
-----------------------------------|---------------------------|
--------------------5h--7----------|---------------------------|
-----------------------------------|--10--8--7--8--<>7~--------|
--8--8--8--8--8--8---------7s--10--|---------------------------|


   E   E  E  E  E  E  E   E     E  E  E  E  E    E   E  E   
-----------------------------|-----------------------------|
-------------------------10--|-----------------------------|
--10--10-----9-----5------x--|-----9--9-----9s--10--10-----|
---x---x-----x-----x------7--|-----x--x-----x----x---x-----|
---8---8-----7-----3---------|-----7--7-----7s---8---8-----|
-----------------------------|-----------------------------|


   E   E  E  E  E  E  E   E     E  E  E  E  E    E   E  E   
-----------------------------|-----------------------------|
-------------------------10--|-----------------------------|
--10--10-----9-----5------x--|-----9--9-----9s--10--10-----|
---x---x-----x-----x------7--|-----x--x-----x----x---x-----|
---8---8-----7-----3---------|-----7--7-----7s---8---8-----|
-----------------------------|-----------------------------|


   E   E  E  E  E  E  E   E     E  E  E  E  E    E   E  E   
-----------------------------|-----------------------------|
-------------------------10--|-----------------------------|
--10--10-----9-----5------x--|-----9--9-----9s--10--10-----|
---x---x-----x-----x------7--|-----x--x-----x----x---x-----|
---8---8-----7-----3---------|-----7--7-----7s---8---8-----|
-----------------------------|-----------------------------|


   E   E  E  E  E  E  E   E     E  E  E  E  E    E   E  E     W                 
-----------------------------|-----------------------------|-------------------|
-------------------------10--|-----------------------------|--6----------------|
--10--10-----9-----5------x--|-----9--9-----9s--10--10-----|--x----------------|
---x---x-----x-----x------7--|-----x--x-----x----x---x-----|--x----------------|
---8---8-----7-----3---------|-----7--7-----7s---8---8-----|--5----------------|
-----------------------------|-----------------------------|-------------------|


  W                   W                  
-------------------|-------------------||
--L----------------|--L----------------||
--L----------------|-------------------||
--L----------------|-------------------||
--L----------------|--L----------------||
-------------------|-------------------||




Duration Legend
---------------
W - whole
H - half
Q - quarter
E - 8th
S - 16th
T - 32nd
X - 64th
. - note dotted
|-n-|  - n-tuplets


Tablature Legend
----------------
L - tied note
x - dead note
g - grace note
(n) - ghost note
> - accentuded note
NH - natural harmonic
AH - artificial harmonic
TH - tapped harmonic
SH - semi harmonic
PH - pitch harmonic
h - hammer on
p - pull off
b - bend
br - bendRelease
pb - preBend
pbr - preBendRelease
brb - bendReleaseBend
\n/ - tremolo bar dip
\n - tremolo bar dive
-/n - tremolo bar Release up
/n\ - tremolo bar inverted dip
/n - tremolo bar return
-\n - tremolo bar Release down
S - shift slide
s - legato slide
/ -  slide into from below or out of upwards
\ -  slide into from above or out of downwards
~ - vibrato
W - wide vibrato
tr - trill
TP - tremolo picking
T - tapping
S - slap
P - pop
< - fade in
^ - brush up
v - brush down





Comments


Popular Dance Gavin Dance tabs & chords
Attack Of The Dashing Young And Bold Bass Tabs
Don't Tell Dave 1 Bass Tabs
Nasa Bass Tabs
Alex English Intro Tabs
Carl Barker Tabs
Open Your Eyes And Look North Tabs
People You Know Tabs
Rock Solid Intro Tabs
Uneasy Hearts Weigh The Most 1 Tabs
Uneasy Hearts Weigh The Most Intro Tabs


Song lyrics



↑ Back to top | Tablatures and chords are parodies/interpretations of the original songs. You may use it for private study, scholarship, research or language learning purposes only
© 2014 AZChords.com Contact us | Privacy policy | DMCA | Add/correct tabs | Request tabs | Top 50 tabs