» » »

Dance Gavin Dance, The Robot Vs The Heroin Battle Of Vietnam Tabs (ver.2)

Artists:  A B C D E F G H I J K L M N O P Q R S T U V W X Y Z # 

The Robot Vs The Heroin Battle Of Vietnam Tabs (ver.2)

Dance Gavin Dance Tabs
 Rating:
4/5 (4 votes)
The Robot Vs The Heroin Battle Of Vietnam lessons Tabs too difficult? Try these video lessons and learn fast
                "(1)
dance gavin dance.
best band ever!
my attempt at battle of vietnam


first guitar - play right away
e---------------------------|
b---------------------------|
g-3-------------------------|
d-7b------------------------|
a---------------------------|
d---------------------------|


first guitar
e-------12--12------12--12-----12~----------------------------------|
b-------17b-17b-----17b-17b----17b~---------------------------------|
g-------------------------------------------------------------------|
d-------------------------------------------------------------------|
a-------------------------------------------------------------------|
d-------------------------------------------------------------------|
            PART OF VICTIMS ORGANS

second guitar
e-------------------------------------------------------------------|
b-------------------------------------------------------------------|
g-------------------------------------------------------------------|
d--3333--------333--------3333--------------------------------------|
a--3333--------333--------3333--------------------------------------|
d--3333--------333--------3333--------------------------------------|x's 2
then guitar one does this as soon as second guitar changes
e------------------------|
b------------------------|
g-------10p9---7b~-------|
d-10-10------------------|
a------------------------|
d------------------------|
then back to
e--------12--12------12--12-----12~------------------------------------|
b--------17b-17b-----17b-17b----17b~-----------------------------------|
g----------------------------------------------9*----------------------|
d----------------------------------------------------------------------|
a----------------------------------------------------------------------|
d----------------------------------------------------------------------|

second guitar
e-------------------------------------------------------------------|
b----------------------------------------------6~-------------------|
g----------------------------------------------9~-------------------|
d-00000000--00--00~---00000000--00~--0~-----------------------------|
a-00000000--00--00~---00000000--00~--0~-----------------------------|
d-00000000--00--00~---00000000--00~--0~-----------------------------|
  ********  **  **    ********  **

verse
first guitar
e---------------------------------------------------------------|
b----------8-7-----------8-7------------------------------------|
g--9-9-0-0--0--0-9-9-0-0--0-0-----------------------------------|
d---------------------------------------------------------------|
a---------------------------------------------------------------|
d---------------------------------------------------------------|
   * * * * *** * * * * * ***
play over and then stop palm muting the third time thru.

prechorus
first guitar
e--8v---5~-------------------|
b----5-----------------------|
g----------------------------|
d----------------------------|
a----------------------------|
d----------------------------| all through prechorus

second guitar

e---------------------------------------------------------------|
b--9(16 times)-10(16 times)-------------------------------------| all through prechorus
g---------------------------------------------------------------|
d---------------------------------------------------------------|
a---------------------------------------------------------------|
d---------------------------------------------------------------|

                   MEAN FOR ALLLL OF THIIIIISSS

e-------------------------------------------|
b-------------------------------------------|
g-------9--10-9------9--10-9----------------|
d-10-10--10----10-10--10--------------------|
a-------------------------------------------|
d-------------------------------------------|

e-------------------------------------------------|
b--13-13-13----------13-13-13----------13---------|
g-----------10-10-10----------10-10-10------------|
d-------------------------------------------------|
a-------------------------------------------------|
d-------------------------------------------------| .....FIRST....

chorus

first guitar
e-------------------------------------------|
b-------------------------------------------|
g-------9--10-9------9--10-9----------------|
d-10-10--10----10-10--10--------------------|
a-------------------------------------------|
d-------------------------------------------| x' 4

e--------------------------------------------------------|
b--13-13-13----------13-13-13----------13----------------|
g-----------10-10-10----------10-10-10----14-14-10-------|
d--------------------------------------------------------|
a--------------------------------------------------------|
d------------------------------------------------- x's 2-|

second guitar
e--------------------------------------------------------------|
b--------------------------------------------------------------|
g--------------------------------------------------------------|
d-0---8---10-------000-000--------------888--------------------|
a-0---8---10-------000-000--------------888--------------------|
d-0---8---10-------000-000--------------888--------------------|
                palm mute tremolo these  (play the 8's 16 times)


postchorus.
e----8v~---------------|
b----------------------|
g----------------------|
d----------------------|
a----------------------|
d----------------------|
then back to this
second guitar

e---------------------------------------------------------------|
b--9(16 times)-10(16 times)-------------------------------------| all through prechorus
g---------------------------------------------------------------|
d---------------------------------------------------------------|
a---------------------------------------------------------------|
d---------------------------------------------------------------|

prechorus.
e-13--13--13---12----------------|
b-18b-18b-18b--17b---------------| x's time
g--------------------------------|
d--------------------------------|
a--------------------------------|
d--------------------------------|......FIRST......

chorus again.

outro sounds rly sketchy to me so when i have it down ill edit it and post it.

yeah i tink these are pretty bad lol.
but it was worth a shot

AIM - CyaNidexLandMine
"            
Submit corrections

comments powered by Disqus
↑ Back to top | Dance Gavin Dance Tabs for The Robot Vs The Heroin Battle Of Vietnam. Lyrics for acoustic guitar and electric guitar. Tablatures and chords are parodies/interpretations of the original songs. You may use it for private study, scholarship, research or language learning purposes only