» » »

Dance Gavin Dance, Surprise Im From Cuba Everyone Has One Brain Tabs (ver.1)

Artists:  A B C D E F G H I J K L M N O P Q R S T U V W X Y Z # 

Surprise Im From Cuba Everyone Has One Brain Tabs (ver.1)

Dance Gavin Dance Tabs
 Rating:
4/5 (4 votes)
Surprise Im From Cuba Everyone Has One Brain lessons Tabs too difficult? Try these video lessons and learn fast
                
TUning: Drop D
I learned it by ear, Its my first tab
i plan on covering the whole album and tabbing it out , well here it is enjoy
got anything to add feel free to add :) thanks !
the into is picked if you listen closely ;)

Intro- 00:00-00:22
E|--------------9----9----------------------------16-16-16-16--|
B|-9-9999999999---12---10-1010101010101010101010---------------|
G|-------------------------------------------------------------|
D|-------------------------------------------------------------|
A|-------------------------------------------------------------|
D|-------------------------------------------------------------|

E|--------------9----9-----------------------------------------|
B|-9-9999999999---12---10-1010101010101010101010---------------|
G|-------------------------------------------------9h-11p-9----|
D|-------------------------------------------------------------|
A|-------------------------------------------------------------|
D|-------------------------------------------------------------|

E|--------------9----9----------------------------16-16-16-16--|
B|-9-9999999999---12---10-1010101010101010101010---------------|
G|-------------------------------------------------------------|
D|-------------------------------------------------------------|
A|-------------------------------------------------------------|
D|-------------------------------------------------------------|

E|--------------9----9------------------------------------------|
B|-9-9999999999---12---10-1010101010101010101010----------------|
G|------------------------------------------------9h-11p-9------|slide
D|--------------------------------------------------------down--|
A|--------------------------------------------------------------|
D|--------------------------------------------------------------|

   00:23-01:07
E|----------tremolo-pick---------------------------------------|
B|-------------------------------------------------------------|
G|-6666666...99999999....1111111111111......1414....131313....-
D|-------------------------------------------------------------|
A|-------------------------------------------------------------|
D|-------------------------------------------------------------|


  01:08-01:30
E|-161616..141414...121212..111111..121212..11111..-------999.-|
B|--------------------------------------------------1212..-----|
G|-------------------------------------------------------------|
D|----------------------Tremolo Pick---------------------------|
A|-------------------------------------------------------------|
D|-------------------------------------------------------------|


  01:31-01:52   just listen and you'll get it
E|-------------------------------------------------------------|
B|-7h9p(x8)--12h14p(x5?)--14h16p(x2)--16h17h19p17--------------|
G|-------------------------------------------------------------|
D|-------------------------------------------------------------|
A|-------------------------------------------------------------|
D|-------------------------------------------------------------|
im figuring out the other part will put it up or if anyone else does let me know

  01:53-02:04
E|------------------------------------------------------------|
B|-----s/14-12-------------------14-12------------------------|
G|-------------13-14-----13h14---------13--1313131313---------|
D|------------------------------------------------------------|
A|------------------------------------------------------------|
D|------------------------------------------------------------|

  02:05-02:27 (x2)
E|---16h12-14----16h12-14---------------------------------------------------|
B|-----------14----------14-------------------------------------------------|
G|-----------------------------------------13h14p13---------13h14p13--------|
D|--------------------------------11h14s16----------14--14-----------14--14-|
A|---------------------------12h14--------------------16---------------16---|
D|--------------------------------------------------------------------------|

E|-------------|
B|-------------|
G|-13h14p13h14-|
D|-------------|
A|-------------|
D|-------------|

 (02:27 till end) tremolo pick all notes
E|-17--16--14--12--9--12--7--5--17--16--14--12--19--21------------|
B|----------------------------------------------------------------|
G|----------------------------------------------------------------|
D|----------------------------------------------------------------|
A|----------------------------------------------------------------|
D|----------------------------------------------------------------|

hope you like it ! will be tabbing more soon ! -Scotty
            
Submit corrections

comments powered by Disqus
↑ Back to top | Dance Gavin Dance Tabs for Surprise Im From Cuba Everyone Has One Brain. Lyrics for acoustic guitar and electric guitar. Tablatures and chords are parodies/interpretations of the original songs. You may use it for private study, scholarship, research or language learning purposes only