» » »

Dance Gavin Dance, Surprise Im From Cuba Everyone Has One Brain Tabs (ver.2)

Artists:  A B C D E F G H I J K L M N O P Q R S T U V W X Y Z # 

Surprise Im From Cuba Everyone Has One Brain Tabs (ver.2)

Dance Gavin Dance Tabs
 Rating:
4/5 (4 votes)
Surprise Im From Cuba Everyone Has One Brain lessons Tabs too difficult? Try these video lessons and learn fast
                ----------------------------------------------------------------------------
                             Surprise! I'm From Cuba / Everyone Has One brain - Band Name
----------------------------------------------------------------------------

Tuning:Standard dawgie

I think it's 100% perfect what i got down, listen to the song for timing, if you have 
part i didnt get please contact me

Hey girl, ima eat your soul....

e|-------------12---------16-16-16-------------12-------------------------|
B|-------14-12---------------------------14-12----------------------------|
G|--13--------------14--------------13------------14-----9-11-9-----------|x2
D|------------------------------------------------------------------------|
A|------------------------------------------------------------------------|
E|------------------------------------------------------------------------|

Oh look up girl...

e|------------------------------------------------------------------------|
B|------------------------------------------------------------------------|
G|--6666666666-9999999999-11111111111111111111-14141414-13131313----------|x8
D|------------------------------------------------------------------------|
A|------------------------------------------------------------------------|
E|------------------------------------------------------------------------|

Bite the line, remove the words...

e|--161616161616-141414141414-121212121212-1111111111111111111111---------|
B|------------------------------------------------------------------------|
G|------------------------------------------------------------------------|
D|------------------------------------------------------------------------|
A|------------------------------------------------------------------------|
E|------------------------------------------------------------------------|
                                                                                         
                                                                                    x4
e|--121212121212-111111111111-777777-9999999999---------------------------|
B|------------------------------------------------------------------------|
G|------------------------------------------------------------------------|
D|------------------------------------------------------------------------|
A|------------------------------------------------------------------------|
E|------------------------------------------------------------------------|


Step back let go...

e|------------------------------------------------------------------------|
B|------------------------------------------------------------------------|
G|-------------I have no clue sorry if u know, contact me-----------------|
D|------------------------------------------------------------------------|
A|------------------------------------------------------------------------|
E|------------------------------------------------------------------------|

All of those who took the road before you...

e|------------------------------------------------------------------------|
B|---14-------12--------------------------14-----12-12--------------------|
G|------------------13h---14-----13h4--------------------13---------------|
D|------------------------------------------------------------------------|
A|------------------------------------------------------------------------|
E|------------------------------------------------------------------------|

e|--16--14---16--14-------------------------------------------------------|
B|----17--14---17--14-----------------------------------------------------|
G|--------------------------------13h14-13--------13h14-14--------13h14-14|x4
D|-----------------------11-14/16---------14-11-14---------14-11-14-------|
A|---------------------12-------------------------------------------------|
E|------------------------------------------------------------------------|
                        * *                *  *  *          *  *  *

Step back let go...

e|-17171717-16161616-14141414-12121212---------12121212-------------------|
B|-------------------------------------14141414---------12121212-10101010-|
G|------------------------------------------------------------------------|
D|------------------------------------------------------------------------|
A|------------------------------------------------------------------------|
E|------------------------------------------------------------------------|
                                                                                         
                                                                                   x7
e|-17171717-16161616-14141414-12121212-19191919-21212121-19191919-21212121|
B|------------------------------------------------------------------------|
G|------------------------------------------------------------------------|
D|------------------------------------------------------------------------|
A|------------------------------------------------------------------------|
E|------------------------------------------------------------------------|

| /  slide up
| \  slide down
| h  hammer-on
| p  pull-off
| ~  vibrato
| +  harmonic
| x  Mute note
===============================================================================
            
Submit corrections

comments powered by Disqus
↑ Back to top | Dance Gavin Dance Tabs for Surprise Im From Cuba Everyone Has One Brain. Lyrics for acoustic guitar and electric guitar. Tablatures and chords are parodies/interpretations of the original songs. You may use it for private study, scholarship, research or language learning purposes only