» » »

Open Your Heart Tabs (ver.3)

Artists:  A B C D E F G H I J K L M N O P Q R S T U V W X Y Z # 

Open Your Heart Tabs (ver.3)

Crush 40
Rating:
2/5 (1 vote)

Hard to play? Try these video lessons and learn fast.
                -------------------------------------------------------------------------------
                             Open Your Heart - Crush 40
-------------------------------------------------------------------------------

Tuning:standard
intro
   (delay effect)
   (palm muted P.M.)
e|-----------------------------------------------------------------------------|
B|-----------------------------------------------------------------------------|
G|-----------------------------------------------------------------------------|
D|-----------------------------------------------------------------------------|
A|---5--3------- ---3--5--3-------------3--------------------------------------|
E|---------5- -3--5------------5--3--5-----------------------------------------|

heavy distortion
e|---------------------------------------------------------------------------|
B|---------------------------------------------------------------------------|
G|-2-2/-14--\0---------------------------------------------------------------|
D|-2-2/-14--\0---------------------------------------------------------------|
A|-0-0/-0--------------------------------------------------------------------|
E|---------------------------------------------------------------------------|

verse
       (  P.M  )            bend release then pull-off. then hammer-on
e|---------------------------------------------------------------------------|
B|---------------------------------------------------------------------------|
G|-----------0-8-5-7br-p5-5h7br----------------------------------------------|
D|--7-777----0-8-5-7br-p5-5h7br----------------------------------------------|
A|--5-555--------------------------------------------------------------------|
E|--5-555--------------------------------------------------------------------|

     (  P.M  )            bend release then pull-off.
e|-----------------------------------------------------------------------------|
B|-----------------------------------------------------------------------------|
G|-----------0-8-5-7br-p5------------------------------------------------------|
D|--7-777----0-8-5-7br-p5-7p5p0------------------------------------------------|
A|--5-555-----------------------(3)--------------------------------------------|
E|--5-555----------------------------------------------------------------------|
                                                                * pinch hatmonic
       (  P.M.  )
e|---------------------------------------------------------------------------|
B|-----------5-7-8-8\0-------------------------------------------------------|
G|-----------5-7-8-8\0-------------------------------------------------------|
D|--7-777----5-7-8-8\0-------------------------------------------------------|
A|--5-555-----------------5-6-7----------------------------------------------|
E|--5-555---------------0-3-4-5----------------------------------------------|

      (P.M.)                     (P.M.)
e|---------------------------------------------------------------------------|
B|----------------8----7-------------------8----7----------------------------|
G|-----------------7----7-------------------7----7---------------------------|
D|--5/7--777--77------7---7--5/7--777---77----7----7-5h7-----7-6-55-5\4-5-7br|
A|--5/7--777--77-------------5/7--777---77--------------5h7--7-6-55-5\4-5-7br|
E|--3/5--555--55-------------3/5--555---55-----------------------------------|

pre chorus
e|-----------------------------------------------------------------------------|
B|-----------------------------------------------------------------------------|
G|-----------------------------------------------------------------------------|
D|---3----------------5--------------------------------------------------------|
A|---3----------------5----------3-2-------------------------------------------|
E|-1-1----0-1-0-1-2---3----0-3-5-----(3)-~-------------------------------------|
                                                             *pinch harmonic
e|--------------------------------------------------------------------------|
B|--------------------------------------------------------------------------|
G|--------------------------------------------------------------------------|
D|---3----------------5-----------------------------------------------------|
A|---3----------------5-----------------------------------------------------|
E|-1-1----0-1-0-1-2---3--12\--00-44-55-7-~----------------------------------|

e|--------------------------------------------------------------------------|
B|--------------------------------------------------------------------------|
G|--------------------------------------------------------------------------|
D|-3-----3---------3-----3---------5-----5---------5-----5------------------|
A|-3-3-3-3-3-3-3-333-3-3-3-3-3-3-335-5-5-5-5-5-5-555-5-5-5-5-5-5-55---------|
E|-1-1-1-1-1-1-1-111-1-1-1-1-1-1-113-3-3-3-3-3-3-333-3-3-3-3-3-3-33---------|

   (P.M.    ) (let ring )
e|---------------------------------------------------------------------------|
B|---------------------------------------------------------------------------|
G|---------------------------------------------------------------------------|
D|---------------------------------------------------------------------------|
A|-------------5-6-7---------------------------------------------------------|
E|-00-44-55-77---------------------------------------------------------------|

chorus
e|----------------------------------------------------------------------------|
B|----------------------------------------------------------------------------|
G|---------5---5-7--7h5-------------7-5---------------------------------------|
D|--5--7---5-7-5-7--7h5-7------4----7-5---------------------------------------|
A|-5--7-----7----------7-----5------5-----------------------------------------|
E|--3--5--------------------2-------------------------------------------------|

bridge
e|--------------------------------------------------------------------------|
B|--------------------------------------------------------------------------|
G|--------------------------------------------------------------------------|
D|--------------------------------------------------------------------------|
A|-3-3-3-3-3-2-3-5--5-5-5-5-------------------------------------------------|
E|-1-1-1-1-1-0-1-3--3-3-3-3--12\--------------------------------------------|

solo Rhythm

e|-----------------------------------------------------|
B|-----------------------------------------------------|
G|-2--5--2--7--2--5--9--8--7--5------------------------|
D|-2--5--2--7--2--5--9--8--7--5------------------------|
A|-0--3--0--5--0--3--7--6--5--3------------------------|
E|-----------------------------------------------------|

solo
N.H.(natural harmonics)
e|-----------------------------------------------------------------------------|
B|-----------------------------------------------------------------------------|
G|----(5)---------------------------------------------------(9)----------------|
D|-----------------------------------------------------------------------------|
A|----------------------------(3)----------------------------------------------|
E|-----------------------------------------------------------------------------|
       *whammy flutter     *strick note then raise bar to pitch      *flutter
then depress completely

e|--------------------------------------------------14b------------15/16-16\-|
B|------------------------------------13-15b-----13------13-15b-p13----------|
G|----------------------------10\--/14--------14-------14--------------------|
D|-----------8-9-8-7---------------------------------------------------------|
A|-/7~--7-10---------10~--7-8------------------------------------------------|
E|---------------------------------------------------------------------------|



e|-12h17p15p12h17p15p12h17p15p12h17p15p12h17p15p12h15-----------------------|
B|--------------------------------------------------------------------------|
G|--------------------------------------------------------------------------|
D|--------------------------------------------------------------------------|
A|--------------------------------------------------------------------------|
E|--------------------------------------------------------------------------|
     T        T        T        T        T


E|-12h19p15p12h19p15p12h19p15p12h19p15p12h19p15p12h15-----------------------|
B|--------------------------------------------------------------------------|
G|--------------------------------------------------------------------------|
D|--------------------------------------------------------------------------|
A|--------------------------------------------------------------------------|
E|--------------------------------------------------------------------------|
     T        T        T        T        T

(just tremolo pick starting from the 17th fret all the way to off the frets to 
between your pickups
if you keep your finger on the string as you slude up it will still make sound but 
much higher)
i
e|-17//18//19//20//21//22//23//24//25//26//27-----------------------------------|
B|------------------------------------------------------------------------------|
G|------------------------------------------------------------------------------|
D|------------------------------------------------------------------------------|
A|------------------------------------------------------------------------------|
E|------------------------------------------------------------------------------|

e|----------------13~--12-13-15~~~-------------------17-\---------------------|
B|-13br-~~-------------------------------------14-17-17-\---------------------|
G|------12h14-------------------------------14--------------------------------|
D|----------------------------------14---14-----------------------------------|
A|--------------------------------16---16-------------------------------------|
E|------------------------------17--------------------------------------------|

outro
    (  P.M.  )
e|---------------------------------------------------------------------------|
B|-----------5-7-8\0---------------------------------------------------------|
G|-----------5-7-8\0----5--2-------------------------------------------------|
D|--7-777----5-7-8\0----5--2-------------------------------------------------|
A|--5-555---------------3--0-------------------------------------------------|
E|--5-555--------------------------------------------------------------------|



P.M. palm mute
| /   slide up
| \   slide down
| h   hammer-on
| p   pull-off
| ~   vibrato
| +   harmonic
| x   Mute note
| b   Bend
| pb  Pre-bend
| br  Bend release
| pbr Pre-bend release
| brb Bend release bend
            
Hard to play? Try these video lessons and learn fast. | Correct




comments powered by Disqus
↑ Back to top | Tablatures and chords are parodies/interpretations of the original songs. You may use it for private study, scholarship, research or language learning purposes only