>
 >
Open Your Heart 1

Open Your Heart 1 Guitar Tabs

Crush 40 - Open Your Heart 1 chords, tabs, tablatures, lyrics

Guitar lessons | Add/correct | Request | Top 50 tabs Artists:  A B C D E F G H I J K L M N O P Q R S T U V W X Y Z 0-9

Open Your Heart 1 Guitar Tabs – Crush 40

CD, Sheet music, Poster

Do you like Open Your Heart 1? Share with your friends now
Bass TabsTabsTabs v2Tabs v3
Intro

  Minor pentatonic pattern w/ echo (to be tabbed)
E|------------------------------------------------------------------------------|
B|------------------------------------------------------------------------------|
G|------------------------------------------------------------------------------|
D|------------------------------------------------------------------------------|
A|------------------------------------------------------------------------------|
E|------------------------------------------------------------------------------|

  Opening chords, slide up then down
E|------------------------------------------------------------------------------|
B|------------------------------------------------------------------------------|
G|-2-2-/14----\-----------------------------------------------------------------|
D|-2-2-/14----\-----------------------------------------------------------------|
A|-0-0--------\-----------------------------------------------------------------|
E|------------\-----------------------------------------------------------------|

  Main riff
E|------------------------------------------------------------------------------|
B|------------------------------------------------------------------------------|
G|----------------------------------------5-------------------------------------|
D|---------7--8\5--7-7b8-7-5-7------------5-------------------------------------|
A|---------7--8\5--7-7b8-7-5-7--5-5-5-5-5---------------------------------------|
E|-5-5-5-5-5--------------------------------------------------------------------|
   M M M M                      M M M M M

E|------------------------------------------------------------------------------|
B|------------------------------------------------------------------------------|
G|------------------------------------------------------------------------------|
D|---------7--8\5--7-7b8-7-5-7-[7]p5--------------------------------------------|
A|---------7--8\5--7-7b8-7-5-7------[7]p5h[7]~----------------------------------|
E|-5-5-5-5-5--------------------------------------------------------------------|
   M M M M

  Repeat twice, then
E|------------------------------------------------------------------------------|
B|------------------------------------------------------------------------------|
G|------------------8-----------------------------------------------------------|
D|---------7--------8--------------5-6------------------------------------------|
A|---------7----3-5-6--------------5-6------------------------------------------|
E|-5-5-5-5-5--5--------0\----------3-4------------------------------------------|
   M M M M    M M M    (Dive Bomb)

  Verse Part 1
E|------------------------------------------------------------------------------|
B|---------------8------7-----------------------8-----7-------------------------|
G|------------------7------7----------------------7-----7---5-------------------|
D|-7---------7--------7------7--5-7---------7-------7-----7-5-5-5---------------|
A|-7---------7------------------5-7---------7---------------3-5-5---------------|
E|-5-5-5-5-5-5-5----------------3-5-5-5-5-5-5-5---------------3-5---------------|
     M M M M   M (let ring)         M M M M   M M M M M M M

  Verse Part 2
E|------------------------------------------------------------------------------|
B|---------------8------7-------------------7\----------------------------------|
G|------------------7------7----7-6-5-4-5-7-7\----------------------------------|
D|-7---------7--------7------7--7-6-5-4-5-7-7\----------------------------------|
A|-7---------7------------------5-4-3-2-3-5-5\----------------------------------|
E|-5-5-5-5-5-5-5----------------------------------------------------------------|
     M M M M   M (let ring)           M

  Repeat Verse Part 1 then
E|------------------------------------------------------------------------------|
B|---------------8------7-------------------\-----------------------------------|
G|------------------7------7----7-6-5---5-7-\-----------------------------------|
D|-7---------7--------7------7--7-6-5---5-7-\-----------------------------------|
A|-7---------7------------------5-4-3-3-3-5-\-----------------------------------|
E|-5-5-5-5-5-5-5----------------------------------------------------------------|
     M M M M   M (let ring)           M

Pre Chorus

E|-------------------------------------|----------------------------------------|
B|-------------------------------------|----------------------------------------|
G|-------------------------------------|----------------------------------------|
D|---3-------------5-------------------|---3---------------\--------------------|
A|---3-------------5-----------3-2-----|---3---------------\--------00-2--------|
E|-1-1---1-0-1-2-3-3---3-3-5-3-----[3]-|-1-1---1-0-1-2-3-3-\--00-44------0------|
               						      MM MM MM M M

E|-----------------------------------|------------------------------------------|
B|-----------------------------------|------------------------------------------|
G|-----------------------------------|------------------------------------------|
D|-3-----3----------3-----3----------|-5-----5----------5-----5-----------------|
A|-3-----3----------3-----3----------|-5-----5----------5-----5-----------------|
E|-1-1-1-1-1-1-1-11-1-1-1-1-1-1-1-11-|-3-3-3-3-3-3-3-33-3-3-3-3-3-3-3-33--------|
     M M   M M M MM   M M   M M M MM     M M   M M M MM   M M   M M M MM

E|-----------------------------------|------------------------------------------|
B|-----------------------------------|------------------------------------------|
G|-----------------------------------|------------------------------------------|
D|-3-----3----------3-----3----------|-5-----5---5------------------------------|
A|-3-----3----------3-----3----------|-5-----5---5--------------55-6-[7]--------|
E|-1-1-1-1-1-1-1-11-1-1-1-1-1-1-1-11-|-3-3-3-3-3-3--00-44-55-77-----------------|
     M M   M M M MM   M M   M M M MM     M M   M    MM MM MM MM

Chorus

E|-----------------------------------------0------------------------------------|
B|--------------------------------------5--3------------------------------------|
G|-------5-----5---7-----7p5------------4--2------------------------------------|
D|-5-7---5---7-5---7-----7p5-7------4------0------------------------------------|
A|-5-7-------7---------------7----5--------0------------------------------------|
E|-3-5-5---5-5---5---5-5--------2-----------------------------------------------|
       M   M     M   M M        (Let ring)

Repeat four times then

E|------------------------------------------------------------------------------|
B|------------------------------------------------------------------------------|
G|------------------------------------------------------------------------------|
D|-3-3-3-3-------5-5-\----------------------------------------------------------|
A|-3-3-3-3-------5-5-\----------------------------------------------------------|
E|-1-1-1-1-0-1-2-3-3-\----------------------------------------------------------|

Solo

E|------------------------------------------------------------------------------|
B|------------------------------------------------------------------------------|
G|--(5)----------------------------------------------------(9)------------------|
D|------------------------------------------------------------------------------|
A|--------------------------(3)-------------------------------------------------|
E|------------------------------------------------------------------------------|
    (whammy bar fluttering) (reverse dive bomb into whammy bar flutter)

E|------------------------------------------------------------------------------|
B|------------------------------------------------------------------------------|
G|--------------8-9-8--7--5-----2-3-(3)-----------------------------------------|
D|-/7----7--10------------------------------------------------------------------|
A|------------------------------------------------------------------------------|
E|------------------------------------------------------------------------------|
   (dive up)			    (Yup, more whammy)


  With Auto Wah
E|--------------------------14b15r14~---------------------15-15b17~-------------|
B|----13-15b17r15~-------13----------------13-15b17r15-13-----------------------|
G|-14-----------------14----------------14--------------------------------------|
D|------------------------------------------------------------------------------|
A|------------------------------------------------------------------------------|
E|------------------------------------------------------------------------------|

  Tapping Runs (Only use high E string)
E|-12h15h17-12h15h17-12h15h17-12h15h17-12h15h17---------------------------------|
E|-12h15h19-12h15h19-12h15h19-12h15h19-12h15h19---------------------------------|

  Tremolo Picking Run
E|-17171818191920202121222223232424-------------------------------------------\-
				    (Keep going until you cant hear anything)

  With Auto Wah
E|--------------------13-12-13-15~----------------------------------------------|
B|-13b15r13-------13------------------------------------------------------------|
G|----------12h14---------------------------------------------------------------|
D|------------------------------------------------------------------------------|
A|------------------------------------------------------------------------------|
E|------------------------------------------------------------------------------|

  Arpeggio
E|-------------------------16---------------------------------------------------|
B|-------------------13-16------------------------------------------------------|
G|----------13----13------------------------------------------------------------|
D|-------13----13---------------------------------------------------------------|
A|----15------------------------------------------------------------------------|
E|-16---------------------------------------------------------------------------|
   (Sweep)     (Let ring)





Comments


Popular Crush 40 tabs & chords
Escape From The City Chords
Is It You Chords
Chosen One Tabs
It Doesnt Matter Intro Tabs
Live And Learn Tabs
Metal Harbor 1 Tabs
Open Your Heart Tabs
Watch Me Fly Tabs
With Me - Massive Power Mix Intro Tabs
Live Life Ukulele


Song lyrics



↑ Back to top | Tablatures and chords are parodies/interpretations of the original songs. You may use it for private study, scholarship, research or language learning purposes only
© 2014 AZChords.com Contact us | Privacy policy | DMCA | Add/correct tabs | Request tabs | Top 50 tabs