>
 >
What I'm Made Of

What I'm Made Of Guitar Tabs

Crush 40 - What I'm Made Of chords, tabs, tablatures, lyrics

Guitar lessons | Add/correct | Request | Top 50 tabs Artists:  A B C D E F G H I J K L M N O P Q R S T U V W X Y Z 0-9

What I'm Made Of Guitar Tabs – Crush 40

CD, Sheet music, Poster

Do you like What I'm Made Of? Share with your friends now
Bass TabsChordsTabs

 Words by Jonny Gioli Music by Jun Senoue

 

Gtr I (E A D G B E) - 'Jun Senoue'
Gtr II (E A D G B E) - 'Jun Senoue (Lead)'


  Q=185
 4/4
  Gtr I
  W                   E E  E E +H
|-------------------|------------------|
|-------------------|------------------|
|-------------------|--------4-(4)-----|
|-------------------|--------4-(4)-----|
|-------------------|------------------|
|-------------------|-2-2--2-----------|
|
| Gtr II
| E E E E +E  E E E   E E  E E +Q.   E
|---2---7-(7)-5-4---|--------9-(9)-----|
|-2---2-----------5-|-7-9-10-----------|
|-------------------|------------------|
|-------------------|------------------|
|-------------------|------------------|
|-------------------|------------------|


  Q.      E +H        Q.   E +E   E  Q
|-------------------|--------------------|
|-------------------|--------------------|
|-------------------|--------------------|
|-------------------|--------------------|
|---------7-(7)-----|--------------------|
|-5-------5-(5)-----|-7----9-(9)-10-12---|
|
| E  E  E E +Q.   E   Q.   E +Q      Q
|---------9-(9)-----|-7--------------7---|
|----9-10-----------|------5-(5)---------|
|-9-----------------|--------------------|
|-------------------|--------------------|
|-------------------|--------------------|
|-------------------|--------------------|


  E  E E E +Q    Q     E  E  E  E  +H
|-------------------|----------------------|
|-------------------|----------------------|
|--------9-(9)------|----------------------|
|--------9-(9)--11--|----------------------|
|---------------11--|-12-12-12-12-(12)-----|
|-9--9-9------------|-10-10-10-10-(10)-----|
|
| Q.     E +Q    Q     E  E  E  E  +Q.   E
|-5------4-(4)------|----------10-(10)-----|
|----------------5--|--7--9-10-------------|
|-------------------|----------------------|
|-------------------|----------------------|
|-------------------|----------------------|
|-------------------|----------------------|


  Q.      E +H          Q.    E  +Q    Q
|--------------------|--------------------|
|--------------------|--------------------|
|--------------------|-----------------2--|
|---------2-(2)------|--------4--(4)------|
|-0-------0-(0)------|--2-----------------|
|--------------------|--------------------|
|
| E  E  E E +Q    Q     Q.    E  +Q    Q
|---------9-(9)------|--------------------|
|----9-10--------10--|-12-------------10--|
|-9------------------|--------------------|
|--------------------|-------12-(12)------|
|--------------------|--------------------|
|--------------------|--------------------|


   H.      Q    H    Q  Q    Q.   E +Q   E E   Q.   E +Q.   E
|-------------|------------|-----------------|----------------|
|-------------|------------|-----------------|----------------|
|-------------|---------4--|-2---------------|-4--------------|
|-------------|---------2--|-2----4-(4)--2-4-|-4----4-(4)-----|
|--2----------|------------|------4-(4)--2-4-|------4-(4)-----|
|--0----------|------------|-----------------|----------------|
|
|  H.      Q    W            W                 W
|-------------|------------|-----------------|----------------|
|-12----------|------------|-----------------|----------------|
|-------------|------------|-----------------|----------------|
|-------------|------------|-----------------|----------------|
|-------------|------------|-----------------|----------------|
|-------------|------------|-----------------|----------------|


  Q.   E +H       E E +E  E E E +Q     Q.   E +Q   Q    Q.   E +Q   Q
|---------------|--------------------|----------------|----------------|
|---------------|--------------------|----------------|----------------|
|-6-------------|--------------------|-------------2--|----------------|
|-4----4-(4)----|--------------------|------4-(4)-----|-------------2--|
|------4-(4)----|---7-(7)-7-7-9-(9)--|-5--------------|-0----4-(4)-----|
|---------------|---5-(5)-5-5-7-(7)--|----------------|----------------|


  Q.   E +Q   Q    E E +S  S E +S  S E +Q     E E E E +H       Q  Q  H
|----------------|--------------------------|----------------|------------|
|----------------|--------------------------|----------------|------------|
|----------------|--------------------------|-------4-(4)----|----4--2----|
|------1-(1)--4--|---7-(7)---6-(6)----------|-------4-(4)----|----4--2----|
|-2--------------|---5-(5)---4-(4)---7-(7)--|----------------|------------|
|----------------|-5-----------------5-(5)--|-2-2-2----------|-5----------|


  E E E E +H       Q.   Q.   S    E   Q.   E +Q   Q    Q.   E +Q   Q
|----------------|------------------|----------------|----------------|
|----------------|------------------|----------------|----------------|
|-------4-(4)----|-----s=-----|-------------2--|----------------|
|-------4-(4)----|------------------|-0----4-(4)-----|-------------2--|
|-2-2-2----------|-4----------------|----------------|-0----4-(4)-----|
|----------------|------------------|----------------|----------------|


  Q.   E +Q   E E   E E +E  E Q  Q    W          W
|-----------------|-----------------|----------|------|
|-----------------|-----------------|----------|------|
|-----------------|--------------4--|-2--------|------|
|------1-(1)--4---|-6-6-(6)-6-6--2--|-0--------|-2----|
|-2---------------|-4-4-(4)-4-4-----|----------|-0----|
|-----------------|-----------------|----------|------|


  W          E E +E  E Q  Q    W          W
|----------|-----------------|----------|------|
|----------|-----------5--5--|----------|------|
|----------|-----------4--4--|----------|------|
|-4--------|-6-6-(6)-6-------|-7--------|------|
|-2--------|-4-4-(4)-4-------|-5--------|-7----|
|----------|-----------------|----------|-5----|


  Q.   E +H       +W           Q   S  S E +H       +W
|---------------|------------|-------------------|--------|
|---------------|------------|-------------------|--------|
|---------------|------------|-------------------|--------|
|---------------|------------|-------------------|--------|
|-9----5-(5)----|-(5)--------|-5S=(7)---3-(3)----|-(3)----|
|-7----3-(3)----|-(3)--------|-3S=(5)---1-(1)----|-(1)----|


  E E +E  E Q  E E   Q  Q  E E Q    Q  Q  H      Q.   E +Q      E  E
|---3-(3)---3------|-3--3---------|------------|---------------------|
|---3-(3)---3------|-3--3---------|------------|---------------------|
|---1-(1)---1------|-1--1---------|----4--2----|-1-------------------|
|---2-(2)---2------|-2--2--2------|----4--2----|-2----2-(2)----------|
|------------------|---------2-4--|------------|------2-(2)-----4--5-|
|-0-------0----0-0-|--------------|-2----------|---------------------|
|
| Gtr II
| W                  W              W            H       E   E  E  E
|------------------|--------------|------------|--------12--12-------|
|------------------|--------------|------------|---------------12----|
|------------------|--------------|------------|------------------11-|
|------------------|--------------|------------|---------------------|
|------------------|--------------|------------|---------------------|
|------------------|--------------|------------|---------------------|


    E  E Q  H      E E Q  E E E E    W          W
|----------------|----------------|-----------|------|
|----------------|----------------|-----------|------|
|----------------|----------------|-----------|------|
|--------9--7----|-----9------7-9-|-----------|-2----|
|--------9--7----|-----9------7-9-|-12--------|-0----|
|---7--7---------|-7-7----7-7-----|-10--------|------|
|
|  +H       H      W                 W          W
|----------------|----------------|-----------|------|
|----------------|----------------|-----------|------|
|-(11)-----------|----------------|-----------|------|
|----------------|----------------|-----------|------|
|----------------|----------------|-----------|------|
|----------------|----------------|-----------|------|


  E E E E E E E E   E E E E E E Q    Q  Q  H      Q.   E +Q      E  E
|-----------------|----------------|------------|---------------------|
|-----------------|---2-----5---2--|------------|---------------------|
|-----2-----4-----|-4---4-----4----|----4--2----|-1-------------------|
|-----------------|-------6--------|----4--2----|-2----2-(2)----------|
|-2-2---2-2---2-2-|----------------|------------|------2-(2)-----4--5-|
|-----------------|----------------|-2----------|---------------------|
|
| W                 W                W            H       E   E  E  E
|-----------------|----------------|------------|--------12--12-------|
|-----------------|----------------|------------|---------------12----|
|-----------------|----------------|------------|------------------11-|
|-----------------|----------------|------------|---------------------|
|-----------------|----------------|------------|---------------------|
|-----------------|----------------|------------|---------------------|


    E  E Q  H      E E Q  E E E E    W          W
|----------------|----------------|-----------|------|
|----------------|----------------|-----------|------|
|----------------|----------------|-----------|------|
|--------9--7----|-----9------7-9-|-----------|-2----|
|--------9--7----|-----9------7-9-|-12--------|-0----|
|---7--7---------|-7-7----7-7-----|-10--------|------|
|
|  +H       H      W                 W          W
|----------------|----------------|-----------|------|
|----------------|----------------|-----------|------|
|-(11)-----------|----------------|-----------|------|
|----------------|----------------|-----------|------|
|----------------|----------------|-----------|------|
|----------------|----------------|-----------|------|


  E E E E E E E E   E E E E E E Q    E E E E +Q.   E   +H.      Q
|-----------------|----------------|-----------------|-------------|
|-----------------|---2-----5---2--|-------3-(3)-----|-------------|
|-----2-----4-----|-4---4-----4----|-2-2-2-2-(2)-----|----------4--|
|-----------------|-------6--------|-0-0-0-----------|----------2--|
|-2-2---2-2---2-2-|----------------|---------------2-|-(2)---------|
|-----------------|----------------|---------------0-|-(0)---------|


  Q.   E +Q   Q    +W           +H.      Q    Q.   E +Q   E E
|----------------|------------|-------------|-----------------|
|----------------|------------|-------------|-----------------|
|----------------|------------|----------4--|-2---------------|
|-2--------------|------------|----------2--|-2----4-(4)--2-4-|
|-0----2-(2)--4--|-(4)--------|-(4)---------|------4-(4)--2-4-|
|------0-(0)--2--|-(2)--------|-(2)---------|-----------------|


  Q.   E +Q.   E   Q.   E +H       E E +E  E E E +Q     W
|----------------|---------------|--------------------|------|
|----------------|---------------|--------------------|------|
|-4--------------|-6-------------|--------------------|------|
|-4----4-(4)-----|-4----4-(4)----|--------------------|-7----|
|------4-(4)-----|------4-(4)----|---7-(7)-7-7-9-(9)--|-5----|
|----------------|---------------|---5-(5)-5-5-7-(7)--|------|


  W          W          E E +S  S E +S  S E +Q     E E E E +H
|----------|----------|--------------------------|----------------|
|----------|----------|--------------------------|----------------|
|----------|----------|--------------------------|-------4-(4)----|
|----------|----------|---7-(7)---6-(6)----------|-------4-(4)----|
|-7--------|-9--------|---5-(5)---4-(4)---7-(7)--|----------------|
|-5--------|-7--------|-5-----------------5-(5)--|-2-2-2----------|


  Q  Q  H      E E E E +H       Q.   Q.  S.    E   Q.   E +Q   Q
|------------|----------------|------------------|----------------|
|------------|----------------|------------------|----------------|
|----4--2----|-------4-(4)----|-----s------|-------------2--|
|----4--2----|-------4-(4)----|------------------|-0----4-(4)-----|
|------------|-2-2-2----------|-4----------------|----------------|
|-5----------|----------------|------------------|----------------|


  Q.   E +Q   Q    Q.   E +Q   E E   E E +E  E Q  Q    W
|----------------|-----------------|-----------------|------|
|----------------|-----------------|-----------------|------|
|----------------|-----------------|--------------4--|-2----|
|-------------2--|------1-(1)--4---|-6-6-(6)-6-6--2--|-0----|
|-0----4-(4)-----|-2---------------|-4-4-(4)-4-4-----|------|
|----------------|-----------------|-----------------|------|


  W          W          E E +E  E Q  Q    W
|----------|----------|-----------------|------|
|----------|----------|-----------5--5--|------|
|----------|----------|-----------4--4--|------|
|-2--------|-4--------|-6-6-(6)-6-------|-7----|
|-0--------|-2--------|-4-4-(4)-4-------|-5----|
|----------|----------|-----------------|------|


  W          Q.   E +H       +W           E E +S  S E +H
|----------|---------------|------------|--------------------|
|----------|---------------|------------|--------------------|
|----------|---------------|------------|--------------------|
|----------|---------------|------------|---2-(2)------------|
|-7--------|-9----5-(5)----|-(5)--------|-5-0-(0)---3-(3)----|
|-5--------|-7----3-(3)----|-(3)--------|-3---------1-(1)----|


  +W           E E +E  E Q  E E   Q  Q  E E Q    Q  Q  H
|------------|---3-(3)---3------|-3--3---------|------------|
|------------|---3-(3)---3------|-3--3---------|------------|
|------------|---1-(1)---1------|-1--1---------|----4--2----|
|------------|---2-(2)---2------|-2--2--2------|----4--2----|
|-(3)--------|------------------|---------2-4--|------------|
|-(1)--------|-0-------0----0-0-|--------------|-2----------|


  Q.   E +Q      E  E     E  E Q  H      E E Q  E E E E    W
|---------------------|----------------|----------------|-------|
|---------------------|----------------|----------------|-------|
|-1-------------------|----------------|----------------|-------|
|-2----2-(2)----------|--------9--7----|-----9------7-9-|-------|
|------2-(2)-----4--5-|--------9--7----|-----9------7-9-|-12----|
|---------------------|---7--7---------|-7-7----7-7-----|-10----|
|
| Gtr II
| H       E   E  E  E    +H       H      W                 W
|--------12--12-------|----------------|----------------|-------|
|---------------12----|----------------|----------------|-------|
|------------------11-|-(11)-----------|----------------|-------|
|---------------------|----------------|----------------|-------|
|---------------------|----------------|----------------|-------|
|---------------------|----------------|----------------|-------|


  W          E E E E E E E E   E E E E E E Q    Q  Q  H
|----------|-----------------|----------------|------------|
|----------|-----------------|---2-----5---2--|------------|
|----------|-----2-----4-----|-4---4-----4----|----4--2----|
|-2--------|-----------------|-------6--------|----4--2----|
|-0--------|-2-2---2-2---2-2-|----------------|------------|
|----------|-----------------|----------------|-2----------|


  Q.   E +Q      E  E     E  E Q  H      E E Q  E E E E    W
|---------------------|----------------|----------------|-------|
|---------------------|----------------|----------------|-------|
|-1-------------------|----------------|----------------|-------|
|-2----2-(2)----------|--------9--7----|-----9------7-9-|-------|
|------2-(2)-----4--5-|--------9--7----|-----9------7-9-|-12----|
|---------------------|---7--7---------|-7-7----7-7-----|-10----|
|
| Gtr II
| H       E   E  E  E    +H       H      W                 W
|--------12--12-------|----------------|----------------|-------|
|---------------12----|----------------|----------------|-------|
|------------------11-|-(11)-----------|----------------|-------|
|---------------------|----------------|----------------|-------|
|---------------------|----------------|----------------|-------|
|---------------------|----------------|----------------|-------|


  W          E E E E E E E E   E E E E E E Q    E E E E +Q.   E
|----------|-----------------|----------------|-----------------|
|----------|-----------------|---2-----5---2--|-------3-(3)-----|
|----------|-----2-----4-----|-4---4-----4----|-2-2-2-2-(2)-----|
|-2--------|-----------------|-------6--------|-0-0-0-----------|
|-0--------|-2-2---2-2---2-2-|----------------|---------------2-|
|----------|-----------------|----------------|---------------0-|


  +H.      Q    Q.   E +Q   Q    Q  Q  E E +E  E   +H     +Q.   E
|-------------|----------------|-----------------|----------------|
|-------------|----------------|-----------------|----------------|
|----------4--|----------------|-----------------|----------------|
|----------2--|-2--------------|----2--6-6-(6)-7-|-(7)----(7)---9-|
|-(2)---------|-0----2-(2)--4--|-6--0--4-4-(4)-5-|-(5)----(5)---7-|
|-(0)---------|------0-(0)--2--|-4---------------|----------------|


  +H     +Q.   E   +W           Q  Q  E E +E  E   +H     +Q.   E
|----------------|------------|-----------------|----------------|
|----------------|------------|-----------------|----------------|
|----------------|------------|-----------------|----------------|
|-(9)----(9)-----|------------|----2--6-6-(6)-7-|-(7)----(7)---9-|
|-(7)----(7)---4-|-(4)--------|-6--0--4-4-(4)-5-|-(5)----(5)---7-|
|--------------2-|-(2)--------|-4---------------|----------------|


  +W           E E E E E E  E  E     E  E E E E E E E     E  E E E E E Q
|------------|-------------------|--------------------|-------------------|
|------------|-------------------|--------------------|-------------------|
|------------|-------------------|--------------------|-------------------|
|-(9)--------|-------------------|--------------------|----------2---3-4--|
|-(7)--------|-5-5-5-5-5-5--5--5-|---5--5-5-5-5-5-5-5-|---5--5-5-0---1-2--|
|------------|-3-3-3-3-3-3--3--3-|---3--3-3-3-3-3-3-3-|---3--3-3----------|
|
| Gtr II
|  W           H       Q    E  E    +W                   +W
|------------|-------------10-15-|-(15)---------------|-(15)--------------|
|------------|-------------------|--------------------|-------------------|
|------------|-------------------|--------------------|-------------------|
|------------|-------------------|--------------------|-------------------|
|------------|-------------------|--------------------|-------------------|
|------------|-------------------|--------------------|-------------------|


  E E +E  E Q  E E   Q  Q  Q   Q     W
|------------------|--------------|-----------------------------|
|---5-(5)---5------|-5--5--5------|-----------------------------|
|---4-(4)---4------|-4--4--4------|-----------------------------|
|---3-(3)---3------|-3--3--3------|-----------------------------|
|---4-(4)---4------|-4--4--4------|--4--------------------------|
|-0-------0----0-0-|--------------|--2--------------------------|
|
| W                  H     Q H       H     S  S S  S  S  S S  S
|------------------|--------------|-----------------------------|
|------------------|--------------|-----------------------------|
|------------------|--------------|---------------------16---14-|
|------------------|---------5S===|=11----16---------18---------|
|------------------|---------5S===|=11-------14---16------------|
|------------------|--------------|-----------------------------|


  +E     E    +E    E   Q       Q    W                   +E  E +E  E Q  Q
|----------------------------------|-------------------|--------------------|
|----------------------------------|-------------------|--------------------|
|----------------------------------|-------------------|--------------------|
|----------------------------------|-2-----------------|-(2)-2-(2)-2-2--2---|
|-(4)----4----(4)---4---4-------4--|-0-----------------|-(0)-0-(0)-0-0--0---|
|-(2)----2----(2)---2---2-------2--|-------------------|--------------------|
|
|  S   S S  S  S  S S S S S S S Q    E E E  E  E  E  E    H          Q  E E
|----------------------------------|-------------------|--------------------|
|-----------------9---7-5-7---5----|---2-5-10s12s10--5-|--7----------5------|
|-13--14---13-11----------------6--|-4-----------------|----------------6---|
|----------------------------------|-------------------|------------------7-|
|----------------------------------|-------------------|--------------------|
|----------------------------------|-------------------|--------------------|


  W                            +E  E +E  E  Q    Q      W
|----------------------------|-----------------------|-------------------|
|----------------------------|-----------------------|-------------------|
|----------------------------|-----------------------|--2----------------|
|-4--------------------------|-(4)-4-(4)-4--4----4---|--0----------------|
|-2--------------------------|-(2)-2-(2)-2--2----2---|-------------------|
|----------------------------|-----------------------|-------------------|
|
|                                     ~~~
| Q  S S S S S S S S S S S S    Q     Q    +Q..    S   +Q   E  E  +H
|----------------------------|--5-----7----(7)-------|------5-10-(10)----|
|--------------------7-7-7-7-|-----------------------|-------------------|
|----8-8-8-8-9-9-9-9---------|---------------------7-|-(7)---------------|
|-9--------------------------|-----------------------|-------------------|
|----------------------------|-----------------------|-------------------|
|----------------------------|-----------------------|-------------------|


   Q.        E +Q      Q       E E E E +H
|---------------------------|-----------------|
|---------------------------|-----------------|
|---------------------------|-----------------|
|--6-------------------4----|-----------------|
|--4---------7-(7)----------|--4-4-4-4-(4)----|
|------------5-(5)-----7----|--2-2-2-2-(2)----|
|
|  E   E  E  E  E   E  E  E    E E E E +H
|-16--------15--------14----|-----------------|
|-----14-13----13--12----12-|-10-9---7-(7)----|
|---------------------------|------9----------|
|---------------------------|-----------------|
|---------------------------|-----------------|
|---------------------------|-----------------|


  +E   E +E  E Q   Q     W
|----------------------|-----------------------|
|----------------------|-----------------------|
|----------------------|-----------------------|
|----------------------|-2---------------------|
|-(4)--4-(4)-4-4---4---|-0---------------------|
|-(2)--2-(2)-2-2---2---|-----------------------|
|
|  Q.        E E E E E   S S S S +Q   +E  E Q
|----------------------|-----------------------|
|--5b7r======3-2-----2-|-2-3---2-(2)--(2)-2-3--|
|----------------2-4---|-----------------------|
|----------------------|-----------------------|
|----------------------|-----------------------|
|----------------------|-----------------------|


  +E    E +E  E Q  Q     W
|---------------------|---------------------------|
|---------------------|---------------------------|
|---------------------|---------------------------|
|-(2)---2-(2)-2-2--2--|--4------------------------|
|-(0)---0-(0)-0-0--0--|--2------------------------|
|---------------------|---------------------------|
|
|  W                     E  E  E  Q  +E   E  E  E
|-19b21---------------|---------------------------|
|---------------------|-------14-13-(13)-------13-|
|---------------------|-11-14------------11-14----|
|---------------------|---------------------------|
|---------------------|---------------------------|
|---------------------|---------------------------|


  +E    E  +E  E  Q   Q        W
|--------------------------|-------------------------------|
|--------------------------|-------------------------------|
|--------------------------|---2---------------------------|
|-(4)---4--(4)-4--4---4----|---0---------------------------|
|-(2)---2--(2)-2--2---2----|-------------------------------|
|--------------------------|-------------------------------|
|
|  Q   +E         E E E  E    +H     S S  S  S S S  S  S
|--------------------------|-------------------------------|
|-12--(12)--------------10-|-(10)--------------------------|
|----------------11-9-9----|---------9-9-11-14-9-9-11-14---|
|--------------------------|-------------------------------|
|--------------------------|-------------------------------|
|--------------------------|-------------------------------|


  Q.                E      +Q     Q
|--------------------------------------|
|--------------------------------------|
|--------------------------------------|
|-6-----------------7------(7)----6----|
|-4-----------------5------(5)----4----|
|--------------------------------------|
|
| Q.       Q.       Q
|--------------------------------------|
|-9tr10---10tr11---12tr13--------------|
|--------------------------------------|
|--------------------------------------|
|--------------------------------------|
|--------------------------------------|


  E   E    +E      E     Q           E     E
|-----------------------------------------------|
|-----5----(5)-----------5----------------------|
|-----4----(4)-----------4----------------------|
|-----3----(3)-----------3----------------------|
|-----4----(4)-----------4----------------------|
|-0----------------0-----------------0-----0----|
|
|     S  S  S   S  S  S  S  S  S  S  S  S  S  S
|-----------------------------------------------|
|----12-14-17--14-12-14-17-14-12-14-17-14-12-14-|
|-----------------------------------------------|
|-----------------------------------------------|
|-----------------------------------------------|
|-----------------------------------------------|


   Q           Q           Q           Q
|-------------------------------------------------|
|--5-----------5-----------5-----------5----------|
|--4-----------4-----------4-----------4----------|
|--3-----------3-----------3-----------3----------|
|--4-----------4-----------4-----------4----------|
|-------------------------------------------------|
|
|  S  S  S  S  S  S  S  S  S  S  S  S  S  S  S  S
|-------------------------------------------------|
|-12-14-19-14-12-14-21-14-12-14-22-14-12-14-21-14-|
|-------------------------------------------------|
|-------------------------------------------------|
|-------------------------------------------------|
|-------------------------------------------------|


   Q            Q      H      Q.   E +Q      E  E
|---------------------------|---------------------|
|---------------------------|---------------------|
|---------------4------2----|-1-------------------|
|---------------4------2----|-2----2-(2)----------|
|---------------------------|------2-(2)-----4--5-|
|--2------------------------|---------------------|
|
|  S  S  E     +H             H       E   E  E  E
|-------12b14-(12)b14-------|--------12--12-------|
|-12-14---------------------|---------------12----|
|---------------------------|------------------11-|
|---------------------------|---------------------|
|---------------------------|---------------------|
|---------------------------|---------------------|


    E  E Q  H      E E Q  E E E E    W          W
|----------------|----------------|-----------|------|
|----------------|----------------|-----------|------|
|----------------|----------------|-----------|------|
|--------9--7----|-----9------7-9-|-----------|-2----|
|--------9--7----|-----9------7-9-|-12--------|-0----|
|---7--7---------|-7-7----7-7-----|-10--------|------|
|
|  +H       H      W                 W          W
|----------------|----------------|-----------|------|
|----------------|----------------|-----------|------|
|-(11)-----------|----------------|-----------|------|
|----------------|----------------|-----------|------|
|----------------|----------------|-----------|------|
|----------------|----------------|-----------|------|


  E E E E E E E E   E E E E E E Q    Q  Q  H      Q.   E +Q      E  E
|-----------------|----------------|------------|---------------------|
|-----------------|---2-----5---2--|------------|---------------------|
|-----2-----4-----|-4---4-----4----|----4--2----|-1-------------------|
|-----------------|-------6--------|----4--2----|-2----2-(2)----------|
|-2-2---2-2---2-2-|----------------|------------|------2-(2)-----4--5-|
|-----------------|----------------|-2----------|---------------------|
|
| W                 W                W            H       E   E  E  E
|-----------------|----------------|------------|--------12--12-------|
|-----------------|----------------|------------|---------------12----|
|-----------------|----------------|------------|------------------11-|
|-----------------|----------------|------------|---------------------|
|-----------------|----------------|------------|---------------------|
|-----------------|----------------|------------|---------------------|


    E  E Q  H      E E Q  E E E E    W          W
|----------------|----------------|-----------|------|
|----------------|----------------|-----------|------|
|----------------|----------------|-----------|------|
|--------9--7----|-----9------7-9-|-----------|-2----|
|--------9--7----|-----9------7-9-|-12--------|-0----|
|---7--7---------|-7-7----7-7-----|-10--------|------|
|
|  +H       H      W                 W          W
|----------------|----------------|-----------|------|
|----------------|----------------|-----------|------|
|-(11)-----------|----------------|-----------|------|
|----------------|----------------|-----------|------|
|----------------|----------------|-----------|------|
|----------------|----------------|-----------|------|


  E E E E E E E E   E E E E E E Q    E E E E +Q.   E   +H.      Q
|-----------------|----------------|-----------------|-------------|
|-----------------|---2-----5---2--|-------3-(3)-----|-------------|
|-----2-----4-----|-4---4-----4----|-2-2-2-2-(2)-----|----------4--|
|-----------------|-------6--------|-0-0-0-----------|----------2--|
|-2-2---2-2---2-2-|----------------|---------------2-|-(2)---------|
|-----------------|----------------|---------------0-|-(0)---------|


   Q.        E  +H           E E  E E +H
|--------------------------|------------------|
|--------------------------|------------------|
|--------------------------|--------4-(4)-----|
|--2-----------------------|--------4-(4)-----|
|--0---------2--(2)--------|------------------|
|------------0--(0)--------|-2-2--2-----------|
|
| Gtr II
|  E   E  E  E  +E   E E E   E E  E E +Q.   E
|--------------------------|--------9-(9)-----|
|-----------12-(12)-10-9---|-7-9-10-----------|
|-----11-----------------9-|------------------|
|-11-----11----------------|------------------|
|--------------------------|------------------|
|--------------------------|------------------|


  Q.      E +H        Q.   E +E   E  Q
|-------------------|-------------------|
|-------------------|-------------------|
|-------------------|-------------------|
|-------------------|-------------------|
|---------7-(7)-----|-------------------|
|-5-------5-(5)-----|-7----9-(9)-10-12--|
|
| E  E  E E +Q.   E   Q.   E +Q      Q
|---------9-(9)-----|-7--------------7--|
|----9-10-----------|------5-(5)--------|
|-9-----------------|-------------------|
|-------------------|-------------------|
|-------------------|-------------------|
|-------------------|-------------------|


  E  E E E +Q    Q     E  E  E  E  +H        Q.      E +H
|-------------------|----------------------|--------------------*|
|-------------------|----------------------|--------------------*|
|--------9-(9)------|----------------------|--------------------*|
|--------9-(9)--11--|----------------------|---------2-(2)------*|
|---------------11--|-12-12-12-12-(12)-----|-0-------0-(0)------*|
|-9--9-9------------|-10-10-10-10-(10)-----|--------------------*|
|
| Q.     E +Q    Q     E  E  E  E  +Q.   E   E  E  E E +Q    Q
|-5------4-(4)------|----------10-(10)-----|---------9-(9)------*|
|----------------5--|--7--9-10-------------|----9-10--------10--*|
|-------------------|----------------------|-9------------------*|
|-------------------|----------------------|--------------------*|
|-------------------|----------------------|--------------------*|
|-------------------|----------------------|--------------------*|






Duration Legend
---------------
W - whole; H - half; Q - quarter; E - 8th; S - 16th; T - 32nd; X - 64th; a - acciaccatura
+ - note tied to previous; . - note dotted; .. - note double dotted
Uncapitalized letters represent notes that are staccato (1/2 duration)
Irregular groupings are notated above the duration line
Duration letters will always appear directly above the note/fret number it represents the
duration for.  Duration letters with no fret number below them represent rests.  Multi-
bar rests are notated in the form Wxn, where n is the number of bars to rest for.  Low
melody durations appear below the staff

Tablature Legend
----------------
 h   - hammer-on
 p   - pull-off
 b   - bend
 pb  - pre-bend
 r   - bend release (if no number after the r, then release immediately)
 /\  - slide into or out of (from/to "nowhere")
 s   - legato slide
 S   - shift slide
 - natural harmonic
[n]  - artificial harmonic
n(n) - tapped harmonic
 ~   - vibrato
 tr  - trill
 T   - tap
 TP  - trem. picking
 PM  - palm muting
\n/  - tremolo bar dip; n = amount to dip
 \n  - tremolo bar down
 n/  - tremolo bar up
/n\  - tremolo bar inverted dip
 =   - hold bend; also acts as connecting device for hammers/pulls
 <> - volume swell (louder/softer)
 x   - on rhythm slash represents muted slash
 o   - on rhythm slash represents single note slash

Misc Legend
-----------
 |  - bar
||  - double bar
||o - repeat start
o|| - repeat end
*|  - double bar (ending)
 :  - bar (freetime)
 $  - Segno
 &  - Coda





Comments


Popular Crush 40 tabs & chords
Sonic Heroes 1 Chords
Azure Blue World Tabs
Chosen One Tabs
Highway In The Sky Tabs
It Doesnt Matter Intro Tabs
Metal Harbor 1 Tabs
Seven Rings In Hand Tabs
Through The Fire Tabs
Vs Mode Tabs
Never Turn Back Intro Ukulele


Song lyrics



↑ Back to top | Tablatures and chords are parodies/interpretations of the original songs. You may use it for private study, scholarship, research or language learning purposes only
© 2014 AZChords.com Contact us | Privacy policy | DMCA | Add/correct tabs | Request tabs | Top 50 tabs