» » »

Open Your Heart Bass tabs (ver.1)

Artists:  A B C D E F G H I J K L M N O P Q R S T U V W X Y Z # 

Open Your Heart Bass tabs (ver.1)

Crush 40
Rating:
4/5 (2 votes)

Hard to play? Try these video lessons and learn fast.
                "Open Your Heart" Crush 40

Standard Tuning

Beginning
G|-------|
D|-------|
A|-0-0-/-|
E|-------|

Intro x2
G|---------------------------------------|
D|------------------------------------5--|
A|---------7-8-5--7h8p7-5-7-5-5-5-5-5----|
E|-5-5-5-5-------------------------------|

G|---------------------------------------|
D|--------------------------7p5----------|
A|---------7-8-5--7h8p7-5-7-----7p5h7----|
E|-5-5-5-5-------------------------------|

Intro 2 x1
G|---------------------------------|
D|---------------------------------|
A|-----------7---3-5-6-------------|
E|-5-5-5-5-5---5-------0/------3-4-|

Verse
G|--------------------------------------|
D|----------------------------7p5-------|
A|-------------5-4-3-2-3-5-5------7p5h7-|
E|-5-5-5-5-5-5--------------------------|

Pre-Chorus
G|------------------------------------------------------------------------|
D|------------------------------------------------------------------------|
A|--------------------------------------------------------------0-0-2-----|
E|-1-1---1-0-1-2-3-3---3-3-5-3-----1-1---1-0-1-2-3-3-\--0-0-4-4-------0---|

G|-----------------------------------------------------------------------|
D|-----------------------------------------------------------------------|
A|-----------------------------------------------------------------------|
E|-1-1-1-1-1-1-1-11-1-1-1-1-1-1-1-11---3-3-3-3-3-3-3-33-3-3-3-3-3-3-3-33-|

G|--------------------------------------------------------------------|
D|--------------------------------------------------------------------|
A|------------------------------------------------------------55-66-7-|
E|-1-1-1-1-1-1-1-11-1-1-1-1-1-1-1-11-3-3-3-3-3-3--00-44-55-77---------|

Chorus x4
G|--------------------------------4-2---|
D|-----5---5-7------7p5--------4--------|
A|-5-7---7--------------7----5--------0-|
E|-------------5-5---------5------------|


After-Chorus
G|-----------------------|
D|-----------------------|
A|-----------------------|
E|-1-1-1-1-0-1-2-3-3-3-3-|

Solo (play verse x3 then chorus x2)
            
Hard to play? Try these video lessons and learn fast. | Correct




comments powered by Disqus
↑ Back to top | Tablatures and chords are parodies/interpretations of the original songs. You may use it for private study, scholarship, research or language learning purposes only