>
 >
Open Your Heart

Open Your Heart Guitar Tabs

Crush 40 - Open Your Heart chords, tabs, tablatures, lyrics

Guitar lessons | Add/correct | Request | Top 50 tabs Artists:  A B C D E F G H I J K L M N O P Q R S T U V W X Y Z 0-9

Open Your Heart Guitar Tabs – Crush 40

CD, Sheet music, Poster

Do you like Open Your Heart? Share with your friends now
Bass TabsTabsTabs v2Tabs v3
----------------------------------------------------------------------------
----------------------------------------------------------------------------

Tuning: Standard
~~~~~~~~~~~~~~~~~~~~~~~~~~~~~~~~~~~~~~~~~~~~~~~~~~~~~~~~~~~~~~~~~~~~~~~~~~~~


Don't know the delay intro yet (the bajillion echoes overlapping throws me off just a 
bit) but here's the rest of the song as I play it.

Post-Delay Intro (Slowly slide up for the first part, let 0 ring)
|--------------------------------------------------------------------------|
|--------------------------------------------------------------------------|
|-2-2-/-14--\--------------------------------------------------------------|
|-2-2-/-14--\--------------------------------------------------------------|
|-0-0---(0)----------------------------------------------------------------|
|--------------------------------------------------------------------------|

80's!! (Main Riff)
|--------------------------------------------------------------------------|
|--------------------------------------------------------------------------|
|---------2-/-(10)\-7--8-7-5-7---------5-----------------------------------|
|---------2-/-(10)\-7--8-7-5-7---------5-----------------------------------|
|-----0000-------------------------5-7-------------------------------------|
|------------------------------5-7-----------------------------------------|
      ....                     . . . .

|--------------------------------------------------------------------------|
|--------------------------------------------------------------------------|
|-----2-/-(10)-\-7-8-7-5-7p5-----------------------------------------------|
|-----2-/-(10)-\-7-8-7-5-----7p5-------------------------------------------|
|-0000---------------------------------------------------------------------|
|--------------------------------3~~---------------------------------------|
  ....                           +


Pre-Verse WB
|--------------------------------------------------------------------------|
|-----------------------0-\------------------------------------------------|
|-----2-/-(10)-\-5-7-8--8-\\-----------------------------------------------|
|-----2-/-(10)-\-5-7-8--8-\\\----------------------------------------------|
|-0000---------------------\\\---------------5-6-7-------------------------|
|-----------------------------------0--/-----3-4-5-------------------------|
  ....                 WB Dive        /
                                     / Reverse Dive Bomb (back to normal)
                            Hold WB Down


Verse
|--------------------------------------------------------------------------|
|--------------8-----7--------------------------8-----7--------------------|
|----------------7------7-------------------------7-----7----7-6-----------|
|-7------7---------7------7-------7------7----------7-----7--7-6-5--7------|
|-7-0000-7-0000--------------0000-7-0000-7-0000------------------5--7------|
|--------------------------------------------------------------------------|
    ....   ....              ....   ....   ....   . .   . .

|--------------------------------------------------------------------------|
|-------------8-----7------------------------------------------------------|
|---------------7------7-6-5-55-5-5-5-7-77-7-7-7---------------------------|
|------7----------7----7-6-5-55-5-5-5-7-77-7-7-7---------------------------|
|-0000-7-0000--------------------------------------------------------------|
|--------------------------------------------------------------------------|
  ....   ....                .          .


Pre-Chorus (A)
|--------------------------------------------------------------------------|
|--------------------------------------------------------------------------|
|--------------------------------------------------------------------------|
|---3----------------5-----------------------------------------------------|
|---3----------------5----------3-2----------------------------------------|
|-1-1----0-1-0-1-2-3-3----3-5-3-----3-3~-----------------------------------|
         . . . . .                    +


|--------------------------------------------------------------------------|
|--------------------------------------------------------------------------|
|--------------------------------------------------------------------------|
|---3----------------5-----------------------------------------------------|
|---3----------------5----------------0-2-2--------------------------------|
|-1-1----0-1-0-1-2-3-3---12\-0--0-4-4-------4------------------------------|
         . . . . .

Pre-Chorus (B)
|--------------------------------------------------------------------------|
|--------------------------------------------------------------------------|
|--------------------------------------------------------------------------|
|-3-----3---------3-----3---------5-----5---------5-----5------------------|
|-3-3-3-3-3-3-3-333-3-3-3-3-3-3-335-5-5-5-5-5-5-555-5-5-5-5-5-5-55---------|
|-1-1-1-1-1-1-1-111-1-1-1-1-1-1-113-3-3-3-3-3-3-333-3-3-3-3-3-3-33---------|
    . .   . . . ..  . .   . . . ..  . .   . . . ..  . .   . . . ..


Pre-Chorus (C)
|--------------------------------------------------------------------------|
|--------------------------------------------------------------------------|
|--------------------------------------------------------------------------|
|------------------7-7-8-9~------------------------------------------------|
|----------0-0-2-2-5-5-6-7~------------------------------------------------|
|-0--0-4-4-----------------------------------------------------------------|

Chorus
|--------------------------------------------------------------------------|
|--------------------------------------------------------------------------|
|------------------------------4/6-4---------------------------------------|
|-----------7---7-5--------0-2-2/4-2---------------------------------------|
|-5/7---7---5---5\3------4-------------------------------------------------|
|-3/5-8-5-8---8------2-5---------------3-/-(10)-\--------------------------|
              .


Post-Chorus Fill
|--------------------------------------------------------------------------|
|--------------------------------------------------------------------------|
|--------------------------------------------------------------------------|
|--------------------------------------------------------------------------|
|-3-3-3-3-3-2-3-5--5-5-5-5-------------------------------------------------|
|-1-1-1-1-1-0-1-3--3-3-3-3--12\--------------------------------------------|
  . . . . .          . . .


Main Riff (Altered)
|--------------------------------------------------------------------------|
|--------------------------------------------------------------------------|
|---------2-/-(10)\-7--8-7-5-7---------5------2-/-(10)\--7--8--9-----------|
|---------2-/-(10)\-7--8-7-5-7---------5------2-/-(10)\--7--8--9-----------|
|-----0000-------------------------5-7----0000--------------------5-6-7----|
|------------------------------5-7--------------------------------3-4-5----|
      ....                     . . . .    ....


Verse

Verse+ (There are 2 pinch harmonics thrown in this time, listen for timing)
       First one          Second one
|--------------------------------------------------------------------------|
|--------------------------------------------------------------------------|
|--------5~~~---------------7~~~-------------------------------------------|
|--------------------------------------------------------------------------|
|--------------------------------------------------------------------------|
|--------------------------------------------------------------------------|
         +                  +

Pre-Chorus A

Pre-Chorus B+ (Again, harmonics thrown in, listen again for timing)
|--------------------------------------------------------------------------|
|--------------------------------------------------------------------------|
|--------------------------------------------------------------------------|
|------5~----5~------------------------------------------------------------|
|---5~----5~---------------------------------------------------------------|
|--------------------------------------------------------------------------|
    +  +  +  +

Chorus

Post-Chorus Fill

Then Solo (With Delay)

Solo Rhythm
|--------------------------------------------------------------------------|
|--------------------------------------------------------------------------|
|-2--5--2--7--2--5--9--8--7--5---------------------------------------------|
|-2--5--2--7--2--5--9--8--7--5---------------------------------------------|
|-0--3--0--5--0--3--7--6--5--3---------------------------------------------|
|--------------------------------------------------------------------------|


Solo (A)
|-6-\/-\/-\-\/\/\/\/\------------------------------------------------------|
|----------\----------------------------7--\/\-\/\/\/\---------------------|
|-----------\-----------3--/------------------\----------------------------|
|------------\------------/--------------------\---------------------------|
|------------------------/----------------------\--------------------------|
|-----------------------/--------------------------------------------------|
 WB Flutter+Dive        +  WB Pull-Up   +      WB Flutter+Dive


Solo (B)
|--------------------------------------------------------------------------|
|--------------------------------------------------------------------------|
|-----------------------------10--\/\-/\/\/\-------------------------------|
|-----------8-9-8-7------------------\-------------------------------------|
|-/7~--7-10---------10~--7-8----------\------------------------------------|
|--------------------------------------\-----------------------------------|
                              +

Solo (C)
|---------------------14^------------------15/16~-16~~\--------------------|
|-----13-15^-------13-----------13-15^^p13---------------------------------|
|-/14----------/14----------/14--------------------------------------------|
|--------------------------------------------------------------------------|
|--------------------------------------------------------------------------|
|--------------------------------------------------------------------------|


Solo (D)
|-12h17p15p12h17p15p12h17p15p12h17p15p12h17p15p12h15-----------------------|
|--------------------------------------------------------------------------|
|--------------------------------------------------------------------------|
|--------------------------------------------------------------------------|
|--------------------------------------------------------------------------|
|--------------------------------------------------------------------------|
     T        T        T        T        T


|-12h19p15p12h19p15p12h19p15p12h19p15p12h19p15p12h15-----------------------|
|--------------------------------------------------------------------------|
|--------------------------------------------------------------------------|
|--------------------------------------------------------------------------|
|--------------------------------------------------------------------------|
|--------------------------------------------------------------------------|
     T        T        T        T        T


Solo (E)     Pull up with WB, or use fret-hand fingernail as a slide)
|-/17-/-/-/-/-/-/-/-(28)\\-------------------------------------------------|
|-----!-!-!-!-!-!----------------------------------------------------------|
|--------------------------------------------------------------------------|
|--------------------------------------------------------------------------|
|--------------------------------------------------------------------------|
|--------------------------------------------------------------------------|


Solo (F)
|----------------13~--12-13-15~~~------------------------------------------|
|-13^-13~~-----------------------------------------------------------------|
|----------12h14-----------------------------------------------------------|
|--------------------------------------------------------------------------|
|--------------------------------------------------------------------------|
|--------------------------------------------------------------------------|


Solo (G)
|-------------------------17\----------------------------------------------|
|-------------------14-17-17\\---------------------------------------------|
|----------------14----------\\--------------------------------------------|
|-------14----14--------------\\-------------------------------------------|
|----16----16------------------\\------------------------------------------|
|-17-----------------------------------------------------------------------|
                             WB Dive Bomb


End Solo
|--------------------------------------------------------------------------|
|--------------------------------------------------------------------------|
|---------2-/-(10)\-5-7-8~~~~----------------------------------------------|
|---------2-/-(10)\-5-7-8~~~~----------------------------------------------|
|-----0000-----------------------------------------------------------------|
|--------------------------------------------------------------------------|
      ....

Pre-Chorus (B)
Pre-Chorus (C)
Chorus

Chorus Fill
|--------------------------------------------------------------------------|
|--------------------------------------------------------------------------|
|-5-5-5-5-5-4-5-7--7-7-7-7-------------------------------------------------|
|-3-3-3-3-3-2-3-5--5-5-5-5-------------------------------------------------|
|--------------------------------------------------------------------------|
|--------------------------------------------------------------------------|


Chorus

Chorus Fill

Main Riff


Outro
|-----------------------11-\/11-\/11---------------------------------------|
|--------------------------------------------------------------------------|
|-----2-/-(10)-\-5-7-8----------------------5-2----------------------------|
|-----2-/-(10)-\-5-7-8----------------------5-2----------------------------|
|-0000--------------------------------------3-0----------------------------|
|--------------------------------------------------------------------------|
  ....                     WB Stuff

  ----------
 |Whole Song|
  ----------
Delay Intro
Post-Delay
Main Riff (x2)
Pre-Verse WB
Verse (x2)
Pre-Chorus A
Pre-Chorus B (x2)
Chorus (x4)
Post-Chorus Fill
Main Riff Altered
Verse
Verse+
Pre-Chorus B+
Pre-Chorus C
Chorus (x4)
Post-Chorus Fill
Solo A-G
End Solo
Pre-Chorus B (x2)
Pre-Chorus C
Chorus (x2)
Chorus Fill
Chorus (x4)
Verse (x2)
Outro


 --

| /  slide up
| \  slide down
| h  hammer-on
| p  pull-off
| ^  bend, release
| .  palm mute
| T  tapping
| ~  vibrato
| !  speed pick
| +  harmonic
| x  dead note
| WB whammy bar


Keep on rockin' on!





Comments


Popular Crush 40 tabs & chords
Escape From The City 1 Bass Tabs
Live Life Chords
Sonic Heroes Chords
Keys To The Ruin Tabs
Live And Learn 2 Tabs
Live And Learn 5 Tabs
Through The Fire Tabs
What I'm Made Of Tabs
Is It You Ukulele
Live Life Ukulele


Song lyrics



↑ Back to top | Tablatures and chords are parodies/interpretations of the original songs. You may use it for private study, scholarship, research or language learning purposes only
© 2014 AZChords.com Contact us | Privacy policy | DMCA | Add/correct tabs | Request tabs | Top 50 tabs