» » »

Crush 40, Live And Learn Bass tabs (ver.1)

Artists:  A B C D E F G H I J K L M N O P Q R S T U V W X Y Z # 

Live And Learn Bass tabs (ver.1)

Crush 40 Tabs
 Rating:
4/5 (5 votes)
Live And Learn lessons Tabs too difficult? Try these video lessons and learn fast
                "Live and Learn" Crush 40

Standard Tuning

Intro/Chorus
G|-----------------------------------------------------------------|
D|------2-----2-1--------------------------------------------------|
A|-4-4-----4-------4-0--0-0--0----4-2------4-2-0---------------2-3-|
E|------------------------------4------0-0---------0-0-0--4-5------|

Pre-Verse
G|--------------|
D|--------------|
A|-4-4------0/4-|
E|--------------|

Verse
G|---------------------------------------------------------------------------------------------------------------------|
D|---------------------------------------------------------------------------------------------------------------------|
A|-4-4-4-4-4-4-4-4-4-4-4-4-4-4-4-4-0-0-0-0-0-0-0-0-0-0-0-0-0-0-0-0-----------------------------------------------------|
E|-----------------------------------------------------------------0-0-0-0-0-0-0-0-0-0-0-0-0-0-0-4-4-4--4-4-4--4-3-2-0-|

G|---------------------------------------------------------------------------------------------------------------------------|
D|-------------------------------------------------------------------------------2-2-2-2-2-2-2-2-2---------------------------|
A|-4-4-4-4-4-4-4-4-4-4-4-4-4-4-4-4-0-0-0-0-0-0-0-0-0-0-0-0-0---4-2-------------2-------------------0-0-0--0-0-0--0-----2-2-4-|
E|-----------------------------------------------------------0-----0-0-0-0-0-0-------------------------------------2-4-------|

Pre-Chorus
G|--------------------------------------------------|
D|---------------------2----------------------------|
A|-0-0-0--0-0--2-2-2-2---4-2---4-4-4-4-4---------2--|
E|---------------------------4------------0-2-3-4---|

G|------------------------------------------------------------|
D|---------------------2--------------------------------------|
A|-0-0-0--0-0--2-2-2-2---4-2----4-4-4--4-4-4-2--2-2-2-3-3-5-5-|
E|---------------------------4--------------------------------|

G|--------------------------------------------------|
D|---------------------2----------------------------|
A|-0-0-0--0-0--2-2-2-2---4-2---4-4-4-4-4---------2--|
E|---------------------------4------------0-2-3-4---|

G|------------------------------------------------------|
D|------------------------------------------------------|
A|-0-0-0--0--0-0-0--0--0-0--0--3-3-3--3--3-3-3--3-3-5-5-|
E|------------------------------------------------------|

Chorus
Pre-Verse
Verse
Pre-Chorus
Chorus

After Chorus
G|------------------------|
D|------------------------|
A|-4--2-4--2--0-0--0--2-2-|
E|------------------------|

Solo Begin!
G|--------------|
D|--------------|
A|-4----------2-|
E|----0-2-3-4---|

Solo x2
G|-------------------------------------------------------------------------------------------------------------------------|
D|-------------------------------------------------------------------------------2-2-2-2-2-2-2-2-2-------------------------|
A|-4-4-4-4-4-4-4-4-4-4-4-4-4-4-4-4-0-0-0-0-0-0-0-0-0-0-0-0-0---4-2-------------2-------------------------------------------|
E|-----------------------------------------------------------0-----0-0-0-0-0-0---------------------4-4-4-4-4-4-4--4-3-2-0--|

Pre-Chorus
Chorus
After Chorus
Chorus x1
Pre-Verse

Outro Bit
G|---------------|
D|-----------2---|
A|-------2-4---4-|
E|-0-2-4---------|
            
Submit corrections

comments powered by Disqus
↑ Back to top | Crush 40 Bass for Live And Learn. Lyrics for acoustic guitar and electric guitar. Tablatures and chords are parodies/interpretations of the original songs. You may use it for private study, scholarship, research or language learning purposes only