» » »

Nugget Bass tabs (ver.1)

Artists:  A B C D E F G H I J K L M N O P Q R S T U V W X Y Z # 

Nugget Bass tabs (ver.1)

Cake
Rating:
0/5 (0 votes)

Hard to play? Try these video lessons and learn fast.
                
INTRO

A---------------------
E---4----15/4---------

MAIN RIFF

A---------2-2--2-------------2-4-2--------
E--4-0-4-------------4-0-4---------4------

BRIDGE

A--5-5-5-5-5-5-5-----------------
E-----------------0-2-3-5--------

and finally,
the ENDING

A-------2----
E--4--2------

there you go.....it's not hard to figure out when to play the parts...just listen to it once first to get the rhythm, timing, etc....check you later. keep playing bass.
world's best instrument
            
Hard to play? Try these video lessons and learn fast. | Correct




comments powered by Disqus
↑ Back to top | Tablatures and chords are parodies/interpretations of the original songs. You may use it for private study, scholarship, research or language learning purposes only