» » »

Cake, Sad Songs And Waltzes Tabs (ver.1)

Artists:  A B C D E F G H I J K L M N O P Q R S T U V W X Y Z # 

Sad Songs And Waltzes Tabs (ver.1)

Cake Tabs
Rating:
0/5 (0 votes)
Sad Songs And Waltzes lessons Tabs too difficult? Try these video lessons and learn fast
                #



SADSONG.TAB

This TAB transcription was created using TAB MASTER version 1.0
If you enjoy using this program, please consider telling the author

This program is freeware, but it took me some work to make it, so
your financial contribution is welcome.

--------------------------------------------------------------------
Off: "Fashion Nugget"
 This played best without a pick
Part 1
Play 3x
Intro-verse


e:-----------------------------------2-2----3-2-0--------------------2-2----3|
B:----2-2-------------2-2------3--4--3--3----------3---2-2-----3--4--3--3----|
G:----2-2-----2-2-----2-2------4--5--2---2-------------2-2-----4--5--2---2---|
D:----2-2-----2-2-----2-2------------0---0-------------2-2-----------0---0---|
A:-0----------2-2--0-------0-------------------------0------0----------------|
E:---------0-----------------------------------------------------------------|



e:-2-0----------------------------------------------------+------------------|
B:------3----3--4--7-----------------------------2--------+------------------|
G:-----------4--5----7----6-6--7-6-4-2-4-6-7-2-----2------+------------------|
D:--------------------7------------------------2-----2----+------------------|
A:--------0--------5---5-------5---2-0-2-4-5-0--------0---+------------------|
E:------------------------5-5----5---------------------0--+------------------|

Part 2
play once
chorus


e:--------------------------------------------------------------------------2|
B:-----------4-4-----2-2---3-2------------3-22-3-2--2-22--------2-2----3-4--3|
G:---2-2-----4-4-----2-2---4-2-----2-2----4-22-4-2--2-22--------2-2----4-5--2|
D:---2-2-----4-4-----2-2-----------2-2------22---2--2-22--------2-2---------0|
A:---2-2--2-------0-------0--------2-2-----------------------0-------0-------|
E:0-----------------------------0--------------------------------------------|



e:-2----3-2-0----------------------------------------------------------------|
B:--3----------3---3-4--7---------------------------2------------------------|
G:---2-------------4-5---7----6-6--7-6-4-2-4-6-7-2---------------------------|
D:---0--------------------7---------------------------2----------------------|
A:---------------0------5--5-------5---2-0-2-4-5-0-----0---------------------|
E:----------------------------5-5----5------------------0--------------------|

Part 3
play 4x
then back into the chorus                                  
after chorse play verse

e:---------------------------0-----+|
B:------------4-4----2-2----2-2----+|
G:----2-2-----4-4----2-2---2---2---+|
D:----2-2-----4-4----2-2--2--------+|
A:----2-2--2-------0-----0---------+|
E:-0-------------------------------+|



-- 

SADSONG.TAB

This TAB transcription was created using TAB MASTER version 1.0
If you enjoy using this program, please consider telling the author

This program is freeware, but it took me some work to make it, so
your financial contribution is welcome.

--------------------------------------------------------------------
Off: "Fashion Nugget"
 This played best without a pick
Part 1
Play 3x
Intro-verse


e:-----------------------------------2-2----3-2-0--------------------2-2----3|
B:----2-2-------------2-2------3--4--3--3----------3---2-2-----3--4--3--3----|
G:----2-2-----2-2-----2-2------4--5--2---2-------------2-2-----4--5--2---2---|
D:----2-2-----2-2-----2-2------------0---0-------------2-2-----------0---0---|
A:-0----------2-2--0-------0-------------------------0------0----------------|
E:---------0-----------------------------------------------------------------|



e:-2-0----------------------------------------------------+------------------|
B:------3----3--4--7-----------------------------2--------+------------------|
G:-----------4--5----7----6-6--7-6-4-2-4-6-7-2-----2------+------------------|
D:--------------------7------------------------2-----2----+------------------|
A:--------0--------5---5-------5---2-0-2-4-5-0--------0---+------------------|
E:------------------------5-5----5---------------------0--+------------------|

Part 2
play once
chorus


e:--------------------------------------------------------------------------2|
B:-----------4-4-----2-2---3-2------------3-22-3-2--2-22--------2-2----3-4--3|
G:---2-2-----4-4-----2-2---4-2-----2-2----4-22-4-2--2-22--------2-2----4-5--2|
D:---2-2-----4-4-----2-2-----------2-2------22---2--2-22--------2-2---------0|
A:---2-2--2-------0-------0--------2-2-----------------------0-------0-------|
E:0-----------------------------0--------------------------------------------|



e:-2----3-2-0----------------------------------------------------------------|
B:--3----------3---3-4--7---------------------------2------------------------|
G:---2-------------4-5---7----6-6--7-6-4-2-4-6-7-2---------------------------|
D:---0--------------------7---------------------------2----------------------|
A:---------------0------5--5-------5---2-0-2-4-5-0-----0---------------------|
E:----------------------------5-5----5------------------0--------------------|

Part 3
play 4x
then back into the chorus                                  
after chorse play verse

e:---------------------------0-----+|
B:------------4-4----2-2----2-2----+|
G:----2-2-----4-4----2-2---2---2---+|
D:----2-2-----4-4----2-2--2--------+|
A:----2-2--2-------0-----0---------+|
E:-0-------------------------------+|
            
Submit corrections

comments powered by Disqus
↑ Back to top | Cake Tabs for Sad Songs And Waltzes. Lyrics for acoustic guitar and electric guitar. Tablatures and chords are parodies/interpretations of the original songs. You may use it for private study, scholarship, research or language learning purposes only