>
 >
I Will Survive

I Will Survive Guitar Tabs

Cake - I Will Survive chords, tabs, tablatures, lyrics

Guitar lessons | Add/correct | Request | Top 50 tabs Artists:  A B C D E F G H I J K L M N O P Q R S T U V W X Y Z 0-9

I Will Survive Guitar Tabs – Cake

CD, Sheet music, Poster

Do you like I Will Survive? Share with your friends now
Bass TabsBass Tabs v2ChordsChords v2Chords v3TabsTabs v2Tabs v3Tabs v4Ukulele
-------------------------------------------------------------------------------
-------------------------------------------------------------------------------

Pls rate.This is not the perfect tab but this is the closest I can get. Enjoy!

Tuning: EADGBe

Chords :
     Am    Dm    G     C     F     B     E     E7
e|---5-----5-----3-----3-----1-----2-----0-----0-----------------------------|
B|---5-----6-----3-----5-----1-----4-----0-----0-----------------------------|
G|---5-----7-----4-----5-----2-----4-----1-----1-----------------------------|
D|---7-----7-----5-----5-----2-----4-----2-----0-----------------------------|
A|---7-----5-----5-----3-----3-----2-----2-----2-----------------------------|
E|---5-----5-----3-----x-----1-----x-----0-----0-----------------------------|

Pre-Chorus & Chorus Lead :

e|----------------------------33-3-33-33-------------------------------------|
B|----88-8-88-88--66-6-66-66--------------66-6-66-66--55-5-55-55-------------|
G|----------------------------------------55-5-55-55--44-4-44-44-------------|
D|---------------------------------------------------------------------------|
A|--0------------------------------------------------------------------------|
E|---------------------------------------------------------------------------|

Solo :

e|---------------------------------------------------------------------------|
B|---b8--8-5-----------------------------------------------------------------|
G|------------b7--7-5----5h7-777777---5h7-5---4h5p4h5p4----------------------|
D|---------------------7-------------7---------------------------------------|
A|---------------------------------------------------------------------------|
E|---------------------------------------------------------------------------|

e|---------------------------------------------------------------------------|
B|---------------------------------------------------------------------------|
G|---------------------------------------------------------------------------|
D|-------5---b7--5---5--7-5--7-5----6s7-7------------------------------------|
A|---5s7---7-------7--------------7------------------------------------------|
E|---------------------------------------------------------------------------|

e|-----------------------------------------------------8---------------------|
B|--------------------------------------5-8-5---8s10-------------------------|
G|-----5---5-7--b7-5---5-7-b7--b7--b7-b7-------------------------------------|
D|---7---7-----------7-------------------------------------------------------|
A|---------------------------------------------------------------------------|
E|---------------------------------------------------------------------------|

e|---------------------------------------------------------------------------|
B|---b8-5--7---5--7-5--5-7-5-------13---12-----10----------------------------|
G|-----------6-------6---------------------9s11---11-9--12-12-11-------------|
D|-------------------------------14---14-------------------------------------|
A|---------------------------------------------------------------------------|
E|---------------------------------------------------------------------------|

e|---------------------------------------------------------------------------|
B|-----12---10-----8------------------------10---8----5----------------------|
G|-------------7s9---9-7--10-10-9--9~-9~-----------6s8--8-6--9-9-8---9-9--b9~|
D|---12---12-------------------------------9---9-----------------------------|
A|---------------------------------------------------------------------------|
E|---------------------------------------------------------------------------|

e|---------------------------------------------------------------------------|
B|---5--7s9-9-9-9-9--10--12--------------------------------------------------|
G|---------------------------------------------------------------------------|
D|---------------------------------------------------------------------------|
A|---------------------------------------------------------------------------|
E|---------------------------------------------------------------------------|

Break Lead : play around with the 10 on the B  

e|---------------------------------------------------------------------------|
B|---b10b-b10-b10-b10-b10---b10-b10-b10-b10-b10---b10-b10-b10--( x6 )--------|
G|---------------------------------------------------------------------------|
D|---------------------------------------------------------------------------|
A|---------------------------------------------------------------------------|
E|---------------------------------------------------------------------------|

e|---------------------------------------------------------------------------|
B|---b8-b8-b8-b8-b8---5--3-1-0-1-0-------------------------------------------|
G|----------------------------------2-1--------------------------------------|
D|---------------------------------------------------------------------------|
A|---------------------------------------------------------------------------|
E|---------------------------------------------------------------------------|

e|---------------------------------------------------------------------------|
B|---b10b-b10-b10-b10-b10---b10-b10-b10-b10-b10---b10-b10-b10--( x6 )--------|
G|---------------------------------------------------------------------------|
D|---------------------------------------------------------------------------|
A|---------------------------------------------------------------------------|
E|---------------------------------------------------------------------------|

e|---------------------------------------------------------------------------|
B|---b8-b8-b8-b8-b8--b8--5--3-1-0-1-0----------------------------------------|
G|------------------------------------2-1------------------------------------|
D|---------------------------------------------------------------------------|
A|---------------------------------------------------------------------------|
E|---------------------------------------------------------------------------|

End :

e|-------------5------------5------------5------------------------------------|
B|-----------5------------5------------5--------------------------------------|
G|---------5------------5------------5----------------------------------------|
D|-------7------------7------------7------------------------------------------|
A|-----7------------7------------7--------------------------------------------|
E|---5------------5------------5----------------------------------------------|




| /  slide up
| \  slide down
| h  hammer-on
| p  pull-off
| ~  vibrato
| +  harmonic
| x  Mute note
===============================================================================





Comments


Popular Cake tabs & chords
Bound Away Bass Tabs
Love You Madly 1 Bass Tabs
Palm Of Your Hand Chords
You Part The Waters Chords
Building A Religion Tabs
Comfort Eagle 1 Tabs
Commissioning A Symphony In C Tabs
I Will Survive (Solo Ver 2) Tabs
Mahna Mahna 1 Tabs
Waiting Tabs


Song lyrics



↑ Back to top | Tablatures and chords are parodies/interpretations of the original songs. You may use it for private study, scholarship, research or language learning purposes only
© 2014 AZChords.com Contact us | Privacy policy | DMCA | Add/correct tabs | Request tabs | Top 50 tabs