» » »

Going The Distance Tabs (ver.1)

Artists:  A B C D E F G H I J K L M N O P Q R S T U V W X Y Z # 

Going The Distance Tabs (ver.1)

Cake
Rating:
3/5 (5 votes)

Hard to play? Try these video lessons and learn fast.
                / = slide up
\ = slide down
h = hammer on 
p = pull off
b = bend
r = release
x = muted string
t = tap (with finger or pick)
~ = vibrato



               --==Going the Distance==--                        
                          :Cake:      
                        

  
  "..and yearn for the cup; they deftly meneuver.."

 e:--------------------------------------------|
 B:----0-------------0--0-------------0--------|<--let this string sort ring
 G:----4------5/7\5--4--2------4/5\4--2--------|     throughout the verse
 D:----5------7/9\7--5--4------5/7\5--4--------|
 A:--------------------------------------------|x4
 E:--------------------------------------------|



  "He's going the distance.."
  

 e:---------------------------------|------------------------------------|
 B:---------------------------------|------------------------------------|
 G:---------------------------------|------------------------------------|
 D:---------------------------------|------------------------------------|
 A:-------------------------------2-|-------------------/7---------------|x2
 E:--0-0---0-0--0-0--0-h-3b~--5/6---|-0-0---0-0--0-0--0----10r7\3-------|
                         ^
                         |-bend slightly

 
 
  "because he's racing and pacing and plotting the course.."

 e:---------------------------|
 B:---------------------------|
 G:---------------------------|
 D:---------------------------|
 A:--------------------0h1h2--|
 E:--3-3b~--0-0--3b~--0--------|
      ^         ^  
      |-really stress the bends in these areas


 e:---------------------------|
 B:---------------------------|
 G:---------------------------|
 D:--------2------------------|
 A:-----------------0h1h2-----|x2
 E:--0h3h4---3b~---0-----------|




  

   ~Jake Mitch
            
Hard to play? Try these video lessons and learn fast. | Correct




comments powered by Disqus
↑ Back to top | Tablatures and chords are parodies/interpretations of the original songs. You may use it for private study, scholarship, research or language learning purposes only