>
 >
Nugget 1

Nugget 1 Guitar Tabs

Cake - Nugget 1 chords, tabs, tablatures, lyrics

Guitar lessons | Add/correct | Request | Top 50 tabs Artists:  A B C D E F G H I J K L M N O P Q R S T U V W X Y Z 0-9

Nugget 1 Guitar Tabs – Cake

CD, Sheet music, Poster

Do you like Nugget 1? Share with your friends now
Bass TabsBass Tabs v2Bass Tabs v3Bass Tabs v4Bass Tabs v5TabsTabs v2
Cake-Nugget

Intro:

e-------------------------------------------|
B----------------------------------------2--|
G-4-4-4-4-4-4--4-6---------4-4-4-4-4-4-4-4--|
D-4-4-4-4-4-4--4-3---------4-4-4-4-4-4-4-3--|
A----------------------------------------4--|
E----------------------------------------2--|

e--------------------------------------------------------|
B-12\9-9---6\4-4--6\4-4----12\9-9---6\4-4--6\4-4-6-7-----|
G-11\8-8---6\4-4--6\4-4----11\8-8---6\4-4--6\4-4-6-8-----|
D--------------------------------------------------------|
A--------------------------------------------------------|
E--------------------------------------------------------|


e---------------------------------------------------------|
B-12\9-9---6\4-4--6\4-4----12\9-9---6\4-4-----------------|
G-11\8-8---6\4-4--6\4-4----11\8-8---6\4-4-----------------|
D---------------------------------------------------------|
A---------------------------------------------------------|
E---------------------------------------------------------|

Verse:

e----------------------------------------------------------|
B----------------------------------------------------------|
G---------4-4-4--------------------------------------------|
D------------------4----6--4---4---------------------------|
A--------------------6-------6-----------------------------|
E-4-4-4----------------------------------------------------|

Variation 1:

e-----------------------------------------------------------|
B-----------------------------------------------------------|
G---------4-4-4---------------------------------------------|
D------------------4-4~--4-4-5------------------------------|
A-----------------------------------------------------------|
E-4-4-4-----------------------------------------------------|

Variation 2:
e-----------|
B-----------|
G-----------|
D-----6-----|
A-----x-----|
E-4-4-4-----|

Chorus:

e---------------------------|
B---------------------------|
G---------------------------|
D---4--4--4--4--4--4--4-6~--|
A---------------------------|
E---------------------------|

Intro(2):

e---------------------------------------------------------|
B--------12\9-9---6\4-4--6\4-4----12\9-9---6\4-4----------|
G--------11\8-8---6\4-4--6\4-4----11\8-8---6\4-4----------|
D---------------------------------------------------------|
A---------------------------------------------------------|
E-4-4-4---------------------------------------------------|

Bridge:

e---------------------------------------|
B---------------------------------------|
G---6b-4--8-8---6/--10--8-10-11---------|
D---6b-4--------------------------------|
A---------------------------------------|
E--------------------------------4-4-4--|

Riff 1:
e-------------------------------|
B-------------------------------|
G--4b--2---5--4---7b--5--7-9----|
D--5b--3---7--5---9b--7--9-10---|
A-------------------------------|
E-------------------------------|

Riff 2:
e-8-8-8-8-8---8-8-8-8-8---8-8------------------|
B-6-6-6-6-6---6-6-6-6-6---6-6------------------|
G----------------------------------------------|
D----------------------------------------------|
A----------------------------------------------|
E----------------------------------------------|

Outro:
e----------------------------------|
B----------------------------------|
G---------4-4-4--------------------|
D----------------4----6\\----------|
A-------------------6--------------|
E-4-4-4----------------------------|

Some parts you have to listen to get down perfect, just play with it

Order:
Intro:1x
Verse:3x
Variation 1:1x
Verse:3x
Variation 2:1x
Chorus:4x
Intro(2):1x
Verse:3x
Variation 1:1x
Verse:3x
Variation 2:1x
Verse:3x
Variation 2:1x
Chorus:4x
Bridge:2x
Verse:3x
Variation 2:1x
Verse:3x
Variation 2:1x
Riff 1:3x
Riff 2:1x
Riff 1:1x
Riff 2:1x
Verse:11x
Outro:1x





Comments


Popular Cake tabs & chords
Bound Away Bass Tabs
Short Skirt Andf Long Jacket 1 Bass Tabs
Thrills Bass Tabs
Daria Chords
Walk On By Chords
Arco Arena 1 Tabs
Guitar Tabs
Never There Tabs
Race Car Ya-yas Tabs
Ruby Dont Take Your Love To Town Ukulele


Song lyrics



↑ Back to top | Tablatures and chords are parodies/interpretations of the original songs. You may use it for private study, scholarship, research or language learning purposes only
© 2014 AZChords.com Contact us | Privacy policy | DMCA | Add/correct tabs | Request tabs | Top 50 tabs