» » »

Cake, Long Line Of Cars Tabs (ver.2)

Artists:  A B C D E F G H I J K L M N O P Q R S T U V W X Y Z # 

Long Line Of Cars Tabs (ver.2)

Cake Tabs
 Rating:
4/5 (4 votes)
Long Line Of Cars lessons Tabs too difficult? Try these video lessons and learn fast
1
                -------------------------------------------------------------------------------
                           Long Line of Cars - Cake
-------------------------------------------------------------------------------

Tuning: EADGBE (STANDARD)

The intro of this song is really addictive, and I just had to play it. Anyway, enjoy the 
it sounds pretty accurate, but there may be some mistakes.

Intro(some weird effect?):

e|---------------------------------------------------------------------------|
B|0---12--10p8-7h8p7----0-7-5p3-2h3p2--5-5p3-2h3p2-0-------------------------|
G|---------------------------------------------------------------------------|
D|------------------------------------4--------------------------------------|
A|---------------------------------------------------------------------------|
E|---------------------------------------------------------------------------|


Verse x2:
e|---------------------------------------------------------------------------|
B|---------------------------------------------------------------------------|
G|---------------------------------------------------------------------------|
D|-4-4----------4-4----------------------------------------------------------|x2
A|-2-2--2-2-2-2-2-2-2-2-2-2--------------------------------------------------|
E|---------------------------------------------------------------------------|

e|---------------------------------------------------------------------------|
B|---------------------------------------------------------------------------|
G|---------------------------------------------------------------------------|
D|-4-4----------4-4-----------4----------------------------------------------|
A|-2-2--2-2-2-2-2-2-2-2-2-2---2----------------------------------------------|
E|---------------------------------------------------------------------------|

e|---------------------------------------------------------------------------|
B|---------------------------------------------------------------------------|
G|---------------------------------------------------------------------------|
D|-4-4----------4-4----------------------------------------------------------|x2
A|-2-2--2-2-2-2-2-2-2-2-2-2--------------------------------------------------|
E|---------------------------------------------------------------------------|

Chorus:

e|---------------------------------------------------------------------------|
B|---------------------------------------------------------------------------|
G|---------------------------------------------------------------------------|
D|---------------------------------------------------------------------------|
A|-1-1-2-4-5-5---1-1-2-4-5-5-5p4---------------------------------------------|
E|---------------------------------------------------------------------------|

e|---------------------------------------------------------------------------|
B|---------------------------------------------------------------------------|
G|---------------------------------------------------------------------------|
D|---------4-4-----------4-4-------------------------------------------------|
A|-2-2-4-5-----2-2-4-4-5-----------------------------------------------------|
E|---------------------------------------------------------------------------|

e|--------------------------------------------------|
B|--------------------------------------------------|
G|--------------------------------------------------|
D|--------------------------------------------------|
A|-1-1-2-4-5-5---1-1--------------------------------|
E|--------------------------------------------------|

Verse 2:

e|---------------------------------------------------------------------------|
B|---------------------------------------------------------------------------|
G|---------------------------------------------------------------------------|
D|---------4-4-----------4-4-------------------------------------------------|x4
A|-2-2-4-5-----2-2-4-5-------------------------------------------------------|
E|---------------------------------------------------------------------------|

e|---------------------------------------------------------------------------|
B|---------------------------------------------------------------------------|
G|---------------------------------------------------------------------------|
D|---------4--------4--------------------------------------------------------|
A|---1-1-4----1-1-4----5-4-2-------------------------------------------------|
E|---------------------------------------------------------------------------|

e|---------------------------------------------------------------------------|
B|---------------------------------------------------------------------------|
G|--------4---------4--------------------------------------------------------|
D|---------------------------------------------------------------------------|
A|--2-2-4-----2-2-4------5-4--2----------------------------------------------|x2
E|---------------------------------------------------------------------------|

e|--------------------------------------------------|
B|--------------------------------------------------|
G|--------------------------------------------------|
D|--------------------------------------------------|
A|-1-1-2-4-5-5---1-1--------------------------------|
E|--------------------------------------------------|

Bridge:

e|---------------------------------------------------------------------------|
B|---------------------------------------------------------------------------|
G|---------------------------------------------------------------------------|
D|-4-4----------4-4----------------------------------------------------------|x5
A|-2-2--2-2-2-2-2-2-2-2-2-2--------------------------------------------------|
E|---------------------------------------------------------------------------|


e|---------------------------------------------------------------------------|
B|---------------------------------------------------------------------------|
G|--------4---------4--------------------------------------------------------|
D|---------------------------------------------------------------------------|
A|--2-2-4-----2-2-4------5-4--2----------------------------------------------|x3
E|---------------------------------------------------------------------------|

e|---------------------------------------------------------------------------|
B|---------------------------------------------------------------------------|
G|---------------------------------------------------------------------------|
D|---------4--------4--------------------------------------------------------|x2
A|---1-1-4----1-1-4----5-4-2-------------------------------------------------|
E|---------------------------------------------------------------------------|

e|---------------------------------------------------------------------------|
B|---------------------------------------------------------------------------|
G|--------4---------4--------------------------------------------------------|
D|---------------------------------------------------------------------------|
A|--2-2-4-----2-2-4------5-4--2----------------------------------------------|
E|---------------------------------------------------------------------------|

e|---------------------------------------------------------|
B|---------------------------------------------------------|
G|--------4------------------------------------------------|
D|---------------------------------------------------------|
A|--2-2-4--------------------------------------------------|
E|---------------------------------------------------------|

Verse

e|---------------------------------------------------------------------------|
B|---------------------------------------------------------------------------|
G|--------4---------4--------------------------------------------------------|
D|---------------------------------------------------------------------------|
A|--2-2-4-----2-2-4------5-4--2----------------------------------------------|x5
E|---------------------------------------------------------------------------|

e|---------------------------------------------------------------------------|
B|---------------------------------------------------------------------------|
G|---------------------------------------------------------------------------|
D|---------4--------4--------------------------------------------------------|x2
A|---1-1-4----1-1-4----5-4-2-------------------------------------------------|
E|---------------------------------------------------------------------------|

e|---------------------------------------------------------------------------|
B|---------------------------------------------------------------------------|
G|--------4---------4--------------------------------------------------------|
D|---------------------------------------------------------------------------|
A|--2-2-4-----2-2-4------5-4--2----------------------------------------------|x2
E|---------------------------------------------------------------------------|


e|---------------------------------------------------------------------------|
B|---------------------------------------------------------------------------|
G|---------------------------------------------------------------------------|
D|------------4-4---------4-4--------4--4------------------------------------|
A|---1-1-2-4------1-1-2-4----1-1-2-4-----------------------------------------|
E|---------------------------------------------------------------------------|

rhythm fill:

e|---------------------------------------------------------------------------|
B|---------------------------------------------------------------------------|
G|---------------------------------------------------------------------------|
D|---------4--------4--------------------------------------------------------|x15
A|---1-1-4----1-1-4----5-4-2-------------------------------------------------|
E|---------------------------------------------------------------------------|
            
Submit corrections

comments powered by Disqus
↑ Back to top | Cake Tabs for Long Line Of Cars. Lyrics for acoustic guitar and electric guitar. 1 Tablatures and chords are parodies/interpretations of the original songs. You may use it for private study, scholarship, research or language learning purposes only