» » »

Cake, Long Line Of Cars Tabs (ver.1)

Artists:  A B C D E F G H I J K L M N O P Q R S T U V W X Y Z # 

Long Line Of Cars Tabs (ver.1)

Cake Tabs
 Rating:
4/5 (4 votes)
Long Line Of Cars lessons Tabs too difficult? Try these video lessons and learn fast
1
                This is a really great song from cake of their new cd.  It's not a single (or at least yet) but I probably like it better than short skirt/long jacket so i decided to tab it since I couldn't find any others for it online.  It might be a bit hard for some people to play, they're a bunch of hammers/pull offs, but it's a really good part. 



Beggining


  To get through...
E-------------------------------------------------------------------------------
B-------------------------------------------------------------------------------
G-4-4-*-*-*-*-4-4-*-*-*-*-4-4-*-*-*-*-4-4-*-*-*-*-4-4-*-*-*-*-4-4-*-*-*-*-------
D-4-4-*-*-*-*-4-4-*-*-*-*-4-4-*-*-*-*-4-4-*-*-*-*-4-4-*-*-*-*-4-4-*-*-*-*-5--5--
A-2-2-*-*-*-*-2-2-*-*-*-*-2-2-*-*-*-*-2-2-*-*-*-*-2-2-*-*-*-*-2-2-*-*-*-*-5--5--
E-------------------------------------------------------------------------3--3--
									  



E-------------------------------------------------
B-------------------------------------------------
G-4-4-*-*-*-*-4-4-*-*-*-*-4-4-*-*-*-*-4-4-*-*-*-*-
D-4-4-*-*-*-*-4-4-*-*-*-*-4-4-*-*-*-*-4-4-*-*-*-*-
A-2-2-*-*-*-*-2-2-*-*-*-*-2-2-*-*-*-*-2-2-*-*-*-*-
E-------------------------------------------------




E--------------------------------------------------------------------------
B--------------------------------------------------------------------------
G--------------------------------------------------------------------------
D-4-4----0-0--2-2----4-4----0-0--2-2----0-0----2-2--4-4----0-0----2-2--4-4-
A-1-1----2-2--4-4----1-1----2-2--4-4----2-2----4-4--5-5----2-2----4-4--5-5-
E--------------------------------------------------------------------------




E----------------------
B----------------------
G----------------------
D-4-4----0-0-----------
A-1-1----2-2--2-2-*--1-
E-------------3-3-0--2-
  long line of cars...




E-------------------------------------------------------------------------------
B-------------------------------------------------------------------------------
G-------------------------------------------------------------------------------
D-0-0----2-2--4-4----0-0----2-2--4-4----5---------------------------------------
A-2-2----4-4--5-5----2-2----4-4--5-5----7---------------------------------------
E------------------------------------------2-3----------------------------------
					remember where we've been




E-------------------------------------------------------------------------------
B-------------------------------------------------------------------------------
G-------------------------------------------------------------------------------
D-0-0----2-2--4-4----0-0----2-2--4-4----0-0----2-2--4-4-------------------------
A-2-2----4-4--5-5----2-2----4-4--5-5----2-2----4-4--5-5-------------------------
E----------------------------------------------------------0----2-3-------------
							   accept a little sin..




E------------------------------------
B------------------------------------
G------------------------------------
D-0-0----2-2--4-4----0-0----2-2--4-4-
A-2-2----4-4--5-5----2-2----4-4--5-5-
E------------------------------------




Riff 1  
**play twice here**
E-----------------------------------
B-----------------------------------
G-----------------------------------
D----------4-----------2--2-p0------
A-1-h2-h4-----1-h2-h4----------4----
E-----------------------------------


Riff 2
**play twice here**
E-----------------------------------
B----------0------------------------
G-----------------------------------
D----------------------4--2-p0------
A-2-h4-h5-----2-h4-h5----------4----
E-----------------------------------




E----------------------
B----------------------
G----------------------
D-4-4----0-0-----------
A-1-1----2-2--2-2-*--1-
E-------------3-3-0--2-
  long line of cars...




E------------------------------------------------------------------------------
B------------------------------------------------------------------------------
G-4-4-*-*-*-*-4-4-*-*-*-*------4-4-*-*-*-*-4-4-*-*-*-*-4-4-*-*-*-*-4-4-*-*-*-*-
D-4-4-*-*-*-*-4-4-*-*-*-*-5--5-4-4-*-*-*-*-4-4-*-*-*-*-4-4-*-*-*-*-4-4-*-*-*-*-
A-2-2-*-*-*-*-2-2-*-*-*-*-5--5-2-2-*-*-*-*-2-2-*-*-*-*-2-2-*-*-*-*-2-2-*-*-*-*-
E-------------------------3--3-------------------------------------------------




E-------------------------------------------------
B-------------------------------------------------
G-------------------------------------------------
D-4-4-*-*-*-*-4-4-*-*-*-*-4-4-*-*-*-*-4-4-*-*-*-*-
A-4-4-*-*-*-*-4-4-*-*-*-*-4-4-*-*-*-*-4-4-*-*-*-*-
E-2-2-*-*-*-*-2-2-*-*-*-*-2-2-*-*-*-*-2-2-*-*-*-*-



Riff 2



Riff 3
E----------------------
B----------------------
G----------------------
D---------2-2-p0-------
A----------------4-----
E-0-h2-h3--------------



nothing new after this...



Riff 2 **played twice**

Riff 1 **played twice**

Riff 2


really f**king cool horn part


Riff 3
(free lanes of L.A.)

Riff 2 ***played 3 times***

Riff 3

Riff 2 **played twice**

Riff 1 **played twice**

Riff 2 **played twice**


E-------------------------------------------------------
B-------------------------------------------------------
G-------------------------------------------------------
D-4-4----0-0--2-2----4-4----0-0--2-2----4-4----0-0--2-2-
A-1-1----2-2--4-4----1-1----2-2--4-4----1-1----2-2--4-4-
E-------------------------------------------------------


another horn part

Riff 1 **repeated until end of song**
            
Submit corrections

comments powered by Disqus
↑ Back to top | Cake Tabs for Long Line Of Cars. Lyrics for acoustic guitar and electric guitar. 1 Tablatures and chords are parodies/interpretations of the original songs. You may use it for private study, scholarship, research or language learning purposes only