» » »

Frank Sinatra Bass tabs (ver.2)

Artists:  A B C D E F G H I J K L M N O P Q R S T U V W X Y Z # 

Frank Sinatra Bass tabs (ver.2)

Cake
Rating:
3/5 (2 votes)

Hard to play? Try these video lessons and learn fast.
                The bass intro is this

----------9--------------12----------------0-0-0-----------|
-10-10-10---10--10-10-10----10--10-10-10-11------11-10-8-6-|
-----------------------------------------------------------|
-----------------------------------------------------------|

-------12--------11---------------------------------------|
-6-8-13--10-8-10------------------------------------------|
----------------------------------------------------------|
----------------------------------------------------------|

It's pretty slow and pretty easy, just listen to the song and you will get how it goes.



There is a one verse pause but then the rest of the song is this.

---------------- ------------- ------------- ---|
---------------- ------------- ------------- ---|
--------------3- ------------- -----------2- ---|
-0--0-2-2-3-3--- -0-2-2-3-3-3- -0-2-2-3-3--- -0-|
            
Hard to play? Try these video lessons and learn fast. | Correct




comments powered by Disqus
↑ Back to top | Tablatures and chords are parodies/interpretations of the original songs. You may use it for private study, scholarship, research or language learning purposes only