» » »

Cake, Frank Sinatra Tabs (ver.2)

Artists:  A B C D E F G H I J K L M N O P Q R S T U V W X Y Z # 

Frank Sinatra Tabs (ver.2)

Cake Tabs
 Rating:
4/5 (14 votes)
Frank Sinatra lessons Tabs too difficult? Try these video lessons and learn fast
1
                ----------------------------------------------------------------------------
                            Frank Sinatra - Cake
----------------------------------------------------------------------------


I still haven't found any complete TABs for this song so
here's what I've got...

Intro (transcribed for guitar)
listen to the song for the timing

e|----------------------------------------------------|
B|----------------------------------------------------|
G|----------------------------------------------------|
D|------------2----------5----------------------------|
A|--22-22-2-2---2-22-2-2---2-22-2-2-3---------3-2-0---|
E|------------------------------------3-3-3-3-------3-|

e|-------------------------|
B|-------------------------|
G|-------------------------|
D|-----------5--------4----|
A|----0-2-3/5---2-0-2------|
E|--3----------------------|

Acoustic guitar comes in with this

e|--2-2h3-3-3p2-2-2----------|
B|--0-0---0-0---0-0----------|
G|---------------------------|
D|---------------------------|
A|---------------------------|
E|---------------------------|

Let each chord ring except the last one
e|-----0------0------3------3--------|
B|-----0------1------0------0--------|
G|--0--0------0------0------3--------|
D|--2--2------2------0------2--------|
A|--2---------3------2------3--------|
E|--0----------------3---------------|

then play these chords throughout the rest of the song

   Em  C  G  B7
e|--0--0--3--3---------------|
B|--0--1--0--0---------------|
G|--0--0--0--3---------------|
D|--2--2--0--2---------------|
A|--2--3--2--3---------------|
E|--0-----3------------------|

Electric guitar comes in with this

e|------------------------------------|
B|------------------------------------|
G|------------------------------------|
D|----------------------1-1-1-1-------|
A|--------3-----2---------------2-2-2-|
E|--0-2-3---2-3---221-0---------------|

e|------------------------------------|
B|------------------------------------|
G|------------------------------------|
D|--2---------5-----------------------|
A|----2-2-2-2---2-2-2-2-3---------3-2-|
E|------------------------3-3-3-3-----|

e|---------------------------|
B|---------------------------|
G|---------------------------|
D|---------------5-------4---|
A|--0-----0-2-3/5--2-0-2-----|
E|----3-3--------------------|

  play this part tremolo
e|--------------------------------------------------|
B|--------------------------------------------------|
G|--------------------------------------------------|
D|--------------------------------------------------|
A|--------------------------------------------------|
E|--5555554333333333337777888888888887777777777777--|

e|---------------------------|
B|---------------------------|
G|--4-2----------------------|
D|------4-1------------------|
A|----------2-2-2-3-2-2------|
E|---------------------------|


Outro
Electric guitar plays this

e|----------------------------|
B|----------------------------|
G|----------------------------|
D|--------------------1-------|
A|--------3-----2-------------|
E|--0-2-3---2-3---2-0---0-2-0-|  repeat to the end


This part is played by the acoustic guitar and
then joined by the trumpet the 2nd time through.

e|--10-----------------------| x2
B|-----12-10----10-12-10-----|
G|-----------12----------12--|
D|---------------------------|
A|---------------------------|
E|---------------------------|

e|--11-----------------------| x2
B|-----12-10----10-12-10-----|
G|-----------11----------11--|
D|---------------------------|
A|---------------------------|
E|---------------------------|

e|--12---------------------12-14-15-14-12--------| x2
B|-----12---------------12----------------12-----|
G|--------12-11-9-11-12----------------------12--|
D|-----------------------------------------------|
A|-----------------------------------------------|
E|-----------------------------------------------|

and that's all folks
            
Submit corrections

comments powered by Disqus
↑ Back to top | Cake Tabs for Frank Sinatra. Lyrics for acoustic guitar and electric guitar. 1 Tablatures and chords are parodies/interpretations of the original songs. You may use it for private study, scholarship, research or language learning purposes only