>
 >
Commissioning A Symphony In C 1

Commissioning A Symphony In C 1 Guitar Tabs

Cake - Commissioning A Symphony In C 1 chords, tabs, tablatures, lyrics

Guitar lessons | Add/correct | Request | Top 50 tabs Artists:  A B C D E F G H I J K L M N O P Q R S T U V W X Y Z 0-9

Commissioning A Symphony In C 1 Guitar Tabs – Cake

CD, Sheet music, Poster

Do you like Commissioning A Symphony In C 1? Share with your friends now
Bass TabsChordsChords v2TabsTabs v2Tabs v3Tabs v4Ukulele
”Commissioning a Symphony in C” Guitar Tab
Song written and performed by Cake

Author’s Note*
I tried to make this as accurate as possible but I did not use any aid
screwed and you can say you’re better than me! Enjoy the tab!

Key

h – Hammer on
p – Pull off
/ - Slide up
\ - Slide Down
( ) – Ghost Note, or in other words you don’t need to play it cause it’s not
that important

Intro
E:|-1-1-1-1-1-1-1-1-|-1-1-1-1-1-1-1-1-|
B:|-3-3-3-3-3-3-3-3-|-3-3-3-3-3-3-3-3-|
G:|-2-2-2-2-2-2-2-2-|-2-2-2-2-2-2-2-2-|
D:|-----------------|-----------------|
A:|-----------------|-----------------|
E:|-----------------|-----------------|

Rest for 4 measures

Verse
E:|-----------------|-----------------|-----------------|-----------------|
B:|-----------------|-----------------|-----------------|-----------------|
G:|-----------------|-----------------|-----------------|-----------------|
D:|-3-3-3-3-3-3-3-3-|-----------------|-3-3-3-3-3-3-3-3-|-----------------|
A:|-1-1-1-1-1-1-1-1-|-3-3-3-3-3-3-3-3-|-1-1-1-1-1-1-1-1-|-3-3-3-3-3-3-3-3-|
E:|-----------------|-1-1-1-1-1-1-1-1-|-----------------|-1-1-1-1-1-1-1-1-|

E:|-----------------|-----------------|-----------------|-----------------|
B:|-----------------|-----------------|-----------------|-----------------|
G:|-----------------|-----------------|-----------------|-----------------|
D:|-7-7-7-7-7-7-7-7-|-----------------|-7-7-7-7-5-5-5-5-|-----------------|
A:|-5-5-5-5-5-5-5-5-|-7-7-7-7-7-7-7-7-|-5-5-5-5-3-3-3-3-|-5-5-5-5-5-5-5-5-|
E:|-----------------|-5-5-5-5-5-5-5-5-|-----------------|-3-3-3-3-3-3-3-3-|

E:|-----------------|-----------------|-----------------|
B:|-----------------|-----------------|-----------------|
G:|-----------------|-5-5-5-5-5-5-5-5-|-----------------|
D:|-3-3-3-3-3-3-3-3-|-3-3-3-3-3-3-3-3-|-3-3-3-3-3-3-3-3-|
A:|-1-1-1-1-1-1-1-1-|-----------------|-1-1-1-1-1-1-1-1-|
E:|-----------------|-----------------|-----------------|

Chorus
E:|-----------------|-----------------|-----------------|
B:|-----------------|-----------------|-----------------|
G:|-5-5-5-5-5-5-5-5-|-2-2-2-2-7-7-7-7-|-----------------|
D:|-3-3-3-3-2-2-2-2-|-0-0-0-0-5-5-5-5-|-5-5-5-5-5-5-5-5-|
A:|-----------------|-----------------|-3-3-3-3-3-3-3-3-|
E:|-----------------|-----------------|-----------------|

E:|-----------------|-----------------|-----------------|-----------------|
B:|-----------------|-----------------|-----------------|-----------------|
G:|-5-5-5-5-5-5-5-5-|-2-2-2-2-7-7-7-7-|-5---------------|-----------------|
D:|-3-3-3-3-2-2-2-2-|-0-0-0-0-5-5-5-5-|-5---------------|-----------------|
A:|-----------------|-----------------|-3---------------|-----------------|
E:|-----------------|-----------------|-----------------|-----------------|

Verse
E:|-----------------|-----------------|-----------------|-----------------|
B:|-----------------|-----------------|-----------------|-----------------|
G:|-----------------|-----------------|-----------------|-----------------|
D:|-----------------|-----------------|-----------------|-----------------|
A:|-----------------|---3-3-0-3-0-3-0-|-----------------|---2-2---2---2---|
E:|-----------------|-----------------|-----------------|-------3---3---3-|

E:|-----------------|-----------------|-----------------|-----------------|
B:|-----------------|-----------------|-----------------|-----------------|
G:|-----------------|---2-2---2---2---|-----------------|---2-2---2---2---|
D:|-----------------|---3-3---3---3---|-----------------|---3-3---3---3---|
A:|-----------------|-------3---3---3-|-----------------|-------3---3---3-|
E:|-----------------|-----------------|-----------------|-----------------|

E:|-----------------|-----------------|-----------------|-----------------|
B:|-----------------|-----------------|-----------------|-----------------|
G:|-----------------|-----------------|-----------------|-----------------|
D:|-7-7-7-7-7-7-7-7-|-----------------|-7-7-7-7-5-5-5-5-|-----------------|
A:|-5-5-5-5-5-5-5-5-|-7-7-7-7-7-7-7-7-|-5-5-5-5-3-3-3-3-|-5-5-5-5-5-5-5-5-|
E:|-----------------|-5-5-5-5-5-5-5-5-|-----------------|-3-3-3-3-3-3-3-3-|

E:|-----------------|-----------------|-----------------|-----------------|
B:|-----------------|-----------------|-----------------|-----------------|
G:|-----------------|-5-5-5-5-5-5-5-5-|-----------------|-3-3-3-3-3-3-3-3-|
D:|-3-3-3-3-3-3-3-3-|-3-3-3-3-3-3-3-3-|-3-3-3-3-3-3-3-3-|-3-3-3-3-3-3-3-3-|
A:|-1-1-1-1-1-1-1-1-|-----------------|-1-1-1-1-1-1-1-1-|-1-1-1-1-1-1-1-1-|
E:|-----------------|-----------------|-----------------|-----------------|

Chorus
E:|-----------------|-----------------|-----------------|
B:|-----------------|-----------------|-----------------|
G:|-5-5-5-5-5-5-5-5-|-2-2-2-2-7-7-7-7-|-----------------|
D:|-3-3-3-3-2-2-2-2-|-0-0-0-0-5-5-5-5-|-5-5-5-5-5-5-5-5-|
A:|-----------------|-----------------|-3-3-3-3-3-3-3-3-|
E:|-----------------|-----------------|-----------------|

E:|-----------------|-----------------|-----------------|
B:|-----------------|-----------------|-----------------|
G:|-5-5-5-5-5-5-5-5-|-2-2-2-2-7-7-7-7-|-----------------|
D:|-3-3-3-3-2-2-2-2-|-0-0-0-0-5-5-5-5-|-5-5-5-5-5-5-5-5-|
A:|-----------------|-----------------|-3-3-3-3-3-3-3-3-|
E:|-----------------|-----------------|-----------------|

E:|-----------------|-----------------|-----------------|-----------------|
B:|-----------------|-----------------|-----------------|-----------------|
G:|-5-5-5-5-5-5-5-5-|-2-2-2-2-7-7-7-7-|-5---------------|-----------------|
D:|-3-3-3-3-2-2-2-2-|-0-0-0-0-5-5-5-5-|-5---------------|-----------------|
A:|-----------------|-----------------|-3---------------|-----------------|
E:|-----------------|-----------------|-----------------|-----------------|

Solo
E:|-5---------------|-----------------|-5-----------------|---------7~------|
B:|---6-------5-----|-----------------|---6-------5-6-/10-|-8---------------|
G:|-----7-6-7---7---|-----------------|-----7-6-7---------|------/7---------|
D:|---------------6-|-7-----6\2-------|-------------------|-----------------|
A:|-----------------|-----------------|-------------------|-----------------|
E:|-----------------|-----------------|-------------------|-----------------|

E:|---------------------|-------------|-------0-1-3-5-/10-|-8-------13--12--|
B:|-------1-3-1h3p1-----|-------------|-3-1-3-------------|-----------------|
G:|-3-2-3-----------3-2-|-2---3-2-----|-------------------|------10--14--12-|
D:|---------------------|-3---3-3-----|-------------------|-----------------|
A:|---------------------|-------------|-------------------|-----------------|
E:|---------------------|-------------|-------------------|-----------------|

Verse
E:|-10--------------|-----------------|-----------------|-----------------|
B:|-----------------|-----------------|-----------------|-----------------|
G:|(10)-------------|-----------------|-----------------|-----------------|
D:|-----------------|-----------------|-----------------|-----------------|
A:|-----------------|---3-3-0-3-0-3-0-|-----------------|---2-2---2---2---|
E:|-----------------|-----------------|-----------------|-------3---3---3-|

E:|-----------------|-----------------|-----------------|-----------------|
B:|-----------------|-----------------|-----------------|-----------------|
G:|-----------------|---2-2---2---2---|-----------------|---2-2---2---2---|
D:|-----------------|---3-3---3---3---|-----------------|---3-3---3---3---|
A:|-----------------|-------3---3---3-|-----------------|-------3---3---3-|
E:|-----------------|-----------------|-----------------|-----------------|

E:|-5---------------|-----------------|-5-----------------|---------7~------|
B:|---6-------5-----|-----------------|---6-------5-6-/10-|-8-----8---------|
G:|-----7-6-7---7---|-----------------|-----7-6-7---------|-----------------|
D:|---------------6-|-7-----6\2-------|-------------------|-----------------|
A:|-----------------|-----------------|-------------------|-----------------|
E:|-----------------|-----------------|-------------------|-----------------|

E:|---------------------|-1---3-1-----|-------0-1-0-----|-------0-1-3-5-/10-|
B:|-------1-3-1h3p1-3-2-|-1---1-1-----|-3-1-3-------3-2-|-3-2-3-------------|
G:|-3-2-3---------------|-------------|-----------------|-------------------|
D:|---------------------|-------------|-----------------|-------------------|
A:|---------------------|-------------|-----------------|-------------------|
E:|---------------------|-------------|-----------------|-------------------|

Chorus
E:|(8)--------------|-----------------|-----------------|
B:|-----------------|-----------------|-----------------|
G:|-5-5-5-5-5-5-5-5-|-2-2-2-2-7-7-7-7-|-----------------|
D:|-3-3-3-3-2-2-2-2-|-0-0-0-0-5-5-5-5-|-5-5-5-5-5-5-5-5-|
A:|-----------------|-----------------|-3-3-3-3-3-3-3-3-|
E:|-----------------|-----------------|-----------------|

E:|-----------------|-----------------|-----------------|
B:|-----------------|-----------------|-----------------|
G:|-5-5-5-5-5-5-5-5-|-2-2-2-2-7-7-7-7-|-----------------|
D:|-3-3-3-3-2-2-2-2-|-0-0-0-0-5-5-5-5-|-5-5-5-5-5-5-5-5-|
A:|-----------------|-----------------|-3-3-3-3-3-3-3-3-|
E:|-----------------|-----------------|-----------------|


E:|-----------------|-----------------|-----------------|
B:|-----------------|-----------------|-----------------|
G:|-5-5-5-5-5-5-5-5-|-2-2-2-2-7-7-7-7-|-----------------|
D:|-3-3-3-3-2-2-2-2-|-0-0-0-0-5-5-5-5-|-5-5-5-5-5-5-5-5-|
A:|-----------------|-----------------|-3-3-3-3-3-3-3-3-|
E:|-----------------|-----------------|-----------------|

E:|-----------------|-----------------|-----------------|
B:|-----------------|-----------------|-----------------|
G:|-5-5-5-5-5-5-5-5-|-2-2-2-2-7-7-7-7-|-----------------|
D:|-3-3-3-3-2-2-2-2-|-0-0-0-0-5-5-5-5-|-5-5-5-5-5-5-5-5-|
A:|-----------------|-----------------|-3-3-3-3-3-3-3-3-|
E:|-----------------|-----------------|-----------------|

E:|-----------------|-----------------|-----------------|
B:|-----------------|-----------------|-----------------|
G:|-5-5-5-5-5-5-5-5-|-2-2-2-2-7-7-7-7-|-5---------------|
D:|-3-3-3-3-2-2-2-2-|-0-0-0-0-5-5-5-5-|-5---------------|
A:|-----------------|-----------------|-3---------------|
E:|-----------------|-----------------|-----------------|





Comments


Popular Cake tabs & chords
Bound Away Bass Tabs
I Will Survive Bass Tabs
The Distance Bass Tabs
Italian Leather Sofa Chords
Walk On By Chords
Mexico Tabs
Pretty Pink Ribbon Tabs
Sad Songs And Waltzes Tabs
Sheep Go To Heaven 1 Tabs
Walk On By Ukulele


Song lyrics



↑ Back to top | Tablatures and chords are parodies/interpretations of the original songs. You may use it for private study, scholarship, research or language learning purposes only
© 2014 AZChords.com Contact us | Privacy policy | DMCA | Add/correct tabs | Request tabs | Top 50 tabs