» » »

Cake, Commisioning A Symphony In C Bass tabs (ver.1)

Artists:  A B C D E F G H I J K L M N O P Q R S T U V W X Y Z # 

Commisioning A Symphony In C Bass tabs (ver.1)

Cake Tabs
Rating:
0/5 (0 votes)
Commisioning A Symphony In C lessons Tabs too difficult? Try these video lessons and learn fast
                
It's an easy song to play so.. enjoy it!

Intro:
G----------------
D----------------
A--5-5-5-5-5-5-5-
E----------------

Riff 1:
G---------------------------------------------------------
D-------------------------------------------------5-5-5-5-
A-5-5-5-5-5-5-5-5-----------------5-5-5-5-3-3-3-3---------
E-----------------5-5-5-5-5-5-5-5-------------------------

G---------------------------------------------------------
D-5---5-7-8-8-8-8-8-8-8-8-----------------8-8-8-8-8-8-8-8-
A---5---------------------8-8-8-8-8-8-8-8-----------------
E---------------------------------------------------------

Riff 2:
G----------------
D----------------
A-8-8-8-8-8-8-8-8
E----------------

Riff 3:
G---------------------------------------------------------
D-------------------------5-5-5-5-------------------------
A-8-8-8-8-7-7-7-7-5-5-5-5---------3-3-3-3-3-3-3-3---------
E---------------------------------------------------------

G---------------------------------------------------------
D-------------------------5-5-5-5-------------------------
A-8-8-8-8-7-7-7-7-5-5-5-5---------3~~~~~~~~~~~~~~---------
E---------------------------------------------------------

Riff 4:
G----------------
D-8-8-8-8-8-8-8-8
A----------------
E----------------

Riff 5:
G---------------------------------------------------------
D-------------------------5-5-5-5-------------------------
A-8-8-8-8-7-7-7-7-5-5-5-5---------3~~~~~~~~~~~~~~---------
E---------------------------------------------------------

How it goes:
1: Riff 1
2: Riff 2
3: Riff 1
4: Riff 3
5: Riff 1
6: Riff 2
7: Riff 1
8: Riff 4
9: Riff 3
10: Riff 1
11: Riff 2
12: Riff 1
13: Riff 2
14: Riff 1
15: Riff 4
16: Riff 3
17: Riff 3
18: Riff 5
            

comments powered by Disqus
↑ Back to top | Cake Bass for Commisioning A Symphony In C. Lyrics for acoustic guitar and electric guitar. Tablatures and chords are parodies/interpretations of the original songs. You may use it for private study, scholarship, research or language learning purposes only