» » »

Cake, Commisioning A Symphony In C Tabs (ver.1)

Artists:  A B C D E F G H I J K L M N O P Q R S T U V W X Y Z # 

Commisioning A Symphony In C Tabs (ver.1)

Cake Tabs
 Rating:
3.8/5 (5 votes)
Commisioning A Symphony In C lessons Tabs too difficult? Try these video lessons and learn fast
                hey, i like the song, figured i'd give it a go

ok, i'm playing an acoustic that i tune by ear, so i'm in between eb and standard.  so, 
the song sounds good as is, great: if not, shift up a fret.

may sound strange, but i have a capo on the 6th fret and it makes the song a piece of cake to play


Am                      E7
so you'll be an austrian nobleman

Am              G           D
commissioning a symphony in c

      F                  C
which defies all earthly descriptions

          F                           C         C/B
you'll be commissioning a symphony in c

Am           D          G
C      C/B        Am        D        G

(I play this little fill for the keys)

d:--------0-----|
a:---0h2--------|
E:-----------3--|


repeat for verses/choruses

solo:

(relative to capo 6)

e:---------------------------------|
b:--5------------------------------|
g:----5-------4--------------------|
d:------7p6h7---7\--1--2-----------|
a:--------------------------5p3p2--|
E:---------------------------------|

e:---------------------------------|
b:--5-------------/5-3------7------|
g:----5-------4h5------------------|
d:------7p6h7------------/7--------|
a:---------------------------------|
E:---------------------------------|

e:---------------------------------|
b:----------------------1-1/3-2----|
g:--------0-2-0h2p0----------------|
d:--3-2-3-----------3-2-2-2/3-1----|
a:---------------------------------|
E:---------------------------------|

e:----------------5------8---7---5-   <----|   or do octaves
b:----------1/3-5------5---5---5---   <----|
g:--2-0-2-4--------------------------------|
d:-----------------------------------------|
a:-----------------------------------------|
E:-----------------------------------------|
            
Submit corrections

comments powered by Disqus
↑ Back to top | Cake Tabs for Commisioning A Symphony In C. Lyrics for acoustic guitar and electric guitar. Tablatures and chords are parodies/interpretations of the original songs. You may use it for private study, scholarship, research or language learning purposes only