» » »

Cake, Comfort Eagle Tabs (ver.1)

Artists:  A B C D E F G H I J K L M N O P Q R S T U V W X Y Z # 

Comfort Eagle Tabs (ver.1)

Cake Tabs
Rating:
3/5 (16 votes)
Comfort Eagle lessons Tabs too difficult? Try these video lessons and learn fast
                This is one easy song to learn and is 99.99% accurate. Enjoy :-)

Comfort Eagle by Cake

Riff A

E-------------------------------------------|
B-------------------------------------------|
G-------------------------------------------|
D-------------------------------------------|
A-------------------------------------------|
E-0-0-0-0-0-1-0-----0---0--0-0-0----1-4-1-0-|

Riff B (Played over Riff A During chorus)

E-0-12-13-12-0-10-12-10-10-8-0-7-8-7-0-5-7-5-5-4-|
B------------------------------------------------|
G------------------------------------------------|
D------------------------------------------------|
A------------------------------------------------|
E------------------------------------------------|

Play Riff B then last play through play

E-0-12-13-12-0-10-12-10-10-8-0-7-8-7-0-5-7-5-4-4-4-|
B--------------------------------------------------|
G--------------------------------------------------|
D--------------------------------------------------|
A--------------------------------------------------|
E--------------------------------------------------|

Final Riff B variation at "interlude"

E------------------------------------------------|
B------------------------------------------------|
G------------------------------------------------|
D------------------------------------------------|
A------------------------------------------------|
E-0-12-13-12-0-10-12-10-10-8-0-7-8-7-0-5-7-5-5-4-|
            
Submit corrections

comments powered by Disqus
↑ Back to top | Cake Tabs for Comfort Eagle. Lyrics for acoustic guitar and electric guitar. Tablatures and chords are parodies/interpretations of the original songs. You may use it for private study, scholarship, research or language learning purposes only