» » »

Comfort Eagle Tabs (ver.2)

Artists:  A B C D E F G H I J K L M N O P Q R S T U V W X Y Z # 

Comfort Eagle Tabs (ver.2)

Cake
Rating:
2/5 (3 votes)

Hard to play? Try these video lessons and learn fast.
                ----------------------------------------------------------------------
                          Cake - Comfort Eagle
----------------------------------------------------------------------

i'm sick of people screwing this up. so... here it is. it's a simple
tune and you'll need to listen to the song for where to play what
parts and how many times, but that is pretty easy.


verse:
   part 1:
   1 . . . 2 . . . 3 . . . 4 . . .   1 . . . 2 . . . 3 . . . 4 . . .
e|---------------------------------|---------------------------------|
B|---------------------------------|---------------------------------|
G|---------------------------------|---------------------------------|
D|---------------------------------|---------------------------------|
A|---------------------------------|---------------------------------|
E|-0---0-0-0---0-0-1---0-------0---|-----0---0---0-0-1---4---1---0---|

   part 2: end (second bar only played before chorus)
   1 . . . 2 . . . 3 . . . 4 . . .   1 . . . 2 . . . 3 . . . 4 . . .
e|---------------------------------|---------------------------------|
B|---------------------------------|---------------------------------|
G|---------------------------------|---------------------------------|
D|---------------------------------|---------------------------------|
A|---------------------------------|---------------------------------|
E|-0---0-0-0---0-0-1---0---0---0---|---------------------0---1---4---|

chorus:
   part 1:
   1 . . . 2 . . . 3 . . . 4 . . .   1 . . . 2 . . . 3 . . . 4 . . .
e|---------------------------------|---------------------------------|
B|---------------------------------|---------------------------------|
G|---------------------------------|---------------------------------|
D|---------------------------------|---------------------------------|
A|---------------------------------|---------------------------------|
E|-5---5-5-5---5---4---1---4---1---|-0---0---------------0---1---4---|

   part 2:
   1 . . . 2 . . . 3 . . . 4 . . .   1 . . . 2 . . . 3 . . . 4 . . .
e|---------------------------------|---------------------------------|
B|---------------------------------|---------------------------------|
G|---------------------------------|---------------------------------|
D|---------------------------------|---------------------------------|
A|---------------------------------|---------------------------------|
E|-5---5-5-5---5---4---1---4---1---|-4---4-4-4---4---1---4---1---4---|

   part 3: end (repeat 1st bar only before the bridge section [3x])
   1 . . . 2 . . . 3 . . . 4 . . .   1 . . . 2 . . . 3 . . . 4 . . .
e|---------------------------------|---------------------------------|
B|---------------------------------|---------------------------------|
G|o-------------------------------o|---------------------------------|
D|o-------------------------------o|---------------------------------|
A|---------------------------------|---------------------------------|
E|-1---1-1-1---1---1---1---1---1---|---------------------------------|

bridge: played on the 1st string (high E) during certain verses
   1 . . . 2 . . . 3 . . . 4 . . .   1 . . . 2 . . . 3 . . . 4 . . .
e|---------------------------------|---------------------------------|
B|---------------------------------|---------------------------------|
G|---------------------------------|---------------------------------|
D|---------------------------------|---------------------------------|
A|---------------------------------|---------------------------------|
E|-0-------12--13--12------0-------|-10--12--10------10------8-------|

   1 . . . 2 . . . 3 . . . 4 . . .   1 . . . 2 . . . 3 . . . 4 . . .
e|---------------------------------|---------------------------------|
B|---------------------------------|---------------------------------|
G|---------------------------------|---------------------------------|
D|---------------------------------|---------------------------------|
A|---------------------------------|---------------------------------|
E|-0-------7---8---7-------0-------|-5---7---5-------5-------4-------|

----------------------------------------------------------------------
the bass part isn't too difficult to figure out either, but here
it is anyway.


verse:
   part 1:                           part 2: end
   1 . . . 2 . . . 3 . . . 4 . . .   1 . . . 2 . . . 3 . . . 4 . . .
G|---------------------------------|---------------------------------|
D|---------------------------------|---------------------------------|
A|---------------------------------|---------------------------------|
E|-0---0---------0-1---0-----------|-0---0---------0-1---0---0---0---|

chorus:
   part 1:
   1 . . . 2 . . . 3 . . . 4 . . .   1 . . . 2 . . . 3 . . . 4 . . .
G|---------------------------------|---------------------------------|
D|---------------------------------|---------------------------------|
A|---------------------------------|---------------------------------|
E|-5---5-----------7---7-----------|-4---4-----------0---0-----------|

   1 . . . 2 . . . 3 . . . 4 . . .   1 . . . 2 . . . 3 . . . 4 . . .
G|---------------------------------|---------------------------------|
D|---------------------------------|---------------------------------|
A|---------------------------------|---------------------------------|
E|-5---5-----------7---7-----------|-4---4---------------------------|

   1 . . . 2 . . . 3 . . . 4 . . .   1 . . . 2 . . . 3 . . . 4 . . .
G|---------------------------------|---------------------------------|
D|---------------------------------|---------------------------------|
A|---------------------------------|---------------------------------|
E|-5---5-----------7---7-----------|-4---4-----------5---5-----------|

   part 2: end (repeat 1st bar only before the bridge section [3x])
   1 . . . 2 . . . 3 . . . 4 . . .   1 . . . 2 . . . 3 . . . 4 . . .
G|---------------------------------|---------------------------------|
D|o-------------------------------o|---------------------------------|
A|o-------------------------------o|---------------------------------|
E|-1---1-------1---1---1---1---1---|---------------------------------|

bridge:
   part 1:
   1 . . . 2 . . . 3 . . . 4 . . .   1 . . . 2 . . . 3 . . . 4 . . .
G|---------------------------------|---------------------------------|
D|---------------------------------|---------------------------------|
A|---------------------------------|---------------------------------|
E|-7\------0-------0-----------0---|-1---------------------------1---|

   1 . . . 2 . . . 3 . . . 4 . . .   1 . . . 2 . . . 3 . . . 4 . . .
G|---------------------------------|---------------------------------|
D|---------------------------------|---------------------------------|
A|---------------------------------|---------------------------------|
E|-4---------------------------4---|-5-----------5---7-----------5---|

   part 2: end (replace second half of part 1)
   1 . . . 2 . . . 3 . . . 4 . . .   1 . . . 2 . . . 3 . . . 4 . . .
G|---------------------------------|---------------------------------|
D|---------------------------------|---------------------------------|
A|---------------------------------|---------------------------------|
E|-4---------------------------4---|-5-----------5---7---------------|
            
Hard to play? Try these video lessons and learn fast. | Correct




comments powered by Disqus
↑ Back to top | Tablatures and chords are parodies/interpretations of the original songs. You may use it for private study, scholarship, research or language learning purposes only