» » »

*Blink 182*, Enthused Bass tabs (ver.2)

Artists:  A B C D E F G H I J K L M N O P Q R S T U V W X Y Z # 

Enthused Bass tabs (ver.2)

*Blink 182* Tabs
Rating:
0/5 (0 votes)
Hard to play? Try these video lessons and learn fast.
                Enthused
Words and Music by Scott Raynor, Mark Hoppus and Tom De Longe
Fast Rock = 244bpm


Intro
|----------------|----------------|----------------|----------------|
|----------------|----------------|9---9---9-9-9-9-|----------------|
|5---5---5-5-5-5-|----------------|7---7---7-7-7-7-|----------------|
|----------------|----------------|----------------|----------------|

|-------------------9-|--9-9---9-9-9-9-|----------------|----------------|
|11---11---11-11-11-7-|--7-7---7-7-7-7-|5---5---5-5-5-5-|--5-5-5-5-5-5-5-|
|9----9----9--9--9----|----------------|----------------|----------------|
|---------------------|----------------|----------------|----------------|

|----------------|----------------|----------------|----------------|
|----------------|----------------|----------------|----------------|
|5---5---5-5-5-5-|--5-5-5-5-5-5-5-|7---7---7-7-7-7-|--7-7-7-7-7-7-7-|
|----------------|----------------|----------------|----------------|

Intro Fill
|----------------|----------------|----------------|----------------|
|--------------7-|--7-7---7-7-7-7-|5---5---5-5-5-5-|----------------|
|9---9---9-9-9---|----------------|----------------|----------------|
|----------------|----------------|----------------|----------------|

	* Slower = 202bpm *

Interlude Part 1
|----------------|----------------|----------------|----------------|
|----------------|----------------|----------------|----------------|
|5-5---5-5-5---5-|5-5---5-5-5-5---|2-2---2-2-2---2-|2-2---2-2-2-2---|
|----------------|----------------|----------------|----------------|

Interlude Part 2
|----------------|----------------|----------------|----------------|
|----------------|----------------|----------------|----------------|
|----------------|----------------|----------------|----------------|
|5-5---5-5-5---5-|5-5---5-5-5-5---|3-3---3-3-3---3-|3-3-3-3-3-3-3-3-|

Interlude Part 3
|----------------|----------------|----------------|----------------|
|----------------|----------------|----------------|----------------|
|----------------|----------------|----------------|----------------|
|5-5---5-5-5---5-|5-5---5-5-5-5---|3-3---3-3-3---3-|5-5-5-5-5-5-5-5-|

Bridge
|----------------|----------------|----------------|----------------|
|----------------|----------------|----------------|----------------|
|5-5-5-5-5-5-5-5-|----------------|----------------|----------------|
|----------------|0-0-0-0-0-0-0-0-|3-3-3-3-3-3-3-3-|5-5-5-5-5-5-5-5-|

Verse
|----------------|----------------|----------------|
|----------------|----------------|----------------|
|5~~~~~~~~~~~~~~~|~~~~~~~~~~~~~~~~|~(5)------------|
|----------------|----------------|----------------|

	* ( - Wait 12 bars - ) *

|----------------|----------------|----------------|------------------------|
|----------------|----------------|----------------|------------------------|
|-------17-17-17\|5-5-5-5-5-5-5-5-|7-7-7-7-7-7-7-7-|10-10-10-10-10-10-10-10-|
|----------------|----------------|----------------|------------------------|

|------------------------|----------------|----------------|
|------------------------|----------------|----------------|
|12-12-12-12-12-12-12-12-|5-5-5-5-5-5-5-5-|7-7-7-7-7-7-7-7-|
|------------------------|----------------|----------------|

|------------------------|--------------------|
|------------------------|--------------------|
|10-10-10-10-10-10-10-10-|12---12---12---12\\\|
|------------------------|--------------------|

Guitar Solo (Wait 8 Bars)
|----------------|----------------|----------------|----------------|
|----------------|----------------|----------------|----------------|
|5-5-5-5-5-5-5-5-|2-2-2-2-2-2-2-2-|----------------|----------------|  x2
|----------------|----------------|5-5-5-5-5-5-5-5-|3-3-3-3-3-3-3-3-|

|----------------|----------------|-----------------|----------------------|
|----------------|----------------|-----------------|----------------------|
|5-5-5-5-5-5-5-2-|--2-2-2-2-2-2-2-|0-0-0-0-0-0-0-10-|--10-10-10-10h12-10\\\|
|----------------|----------------|-----------------|----------------------|

|----------------|----------------|----------------|----------------|
|----------------|----------------|----------------|----------------|
|5-5-5-5-5-5-5-2-|--2-2-2-2-2-2-2-|0-0-0-0-0-0-0---|----------------|
|----------------|----------------|--------------3-|--3-3-3-3-3-3-3-|

Verse 2
|----------------|----------------|----------------|----------------|
|----------------|----------------|----------------|----------------|
|5-5---5-5-5---5-|2-2---2-2-2---2-|----------------|----------------|
|----------------|----------------|5-5---5-5-5---5-|3-3---3-3-3---3-|

|----------------|----------------|----------------|----------------|
|----------------|----------------|----------------|----------------|
|5-5---5-5-5---5-|2-2---2-2-2---2-|----------------|----------------|
|----------------|----------------|5-5---5-5-5---5-|3-3---3-3-3---3-|
                               P.M.^^^^^^^^^^^^^^^^^^^^^^^^^^^^^^^^^

|----------------|----------------|----------------|----------------|
|----------------|----------------|----------------|----------------|
|5-5---5-5-5---5-|2-2---2-2-2---2-|----------------|----------------|
|----------------|----------------|5---------------|----------------|

|----------------|----------------|----------------|----------------|
|----------------|----------------|----------------|----------------|
|5-5---5-5-5---5-|2-2---2-2-2---2-|----------------|----------------|
|----------------|----------------|5-5---5-5-5---5-|3-3---3-3-3---3-|

	* Faster = 244bmp *

Outro Fill
|----------------|----------------|----------------|
|--------------7-|--7-7-7-7-7-7-7-|7-7-7-7-7-7-7-7-|
|9---9---9-9-9---|----------------|----------------|
|----------------|----------------|----------------|

|----------------|----------------|
|----------------|-7--------------|
|-5--------------|-5--------------|
|----------------|----------------|



Intro
Intro Fill
*(change to 202bpm)
Interlude Part 1
Interlude Part 2
Interlude Part 1
Interlude Part 3
Bridge  x2
Verse
Guitar Solo
Bridge  x4
Guitar Solo
Verse 2
*(change to 244bpm)
Intro
Outro Fill
            

comments powered by Disqus
↑ Back to top | *Blink 182* Bass for Enthused. Lyrics for acoustic guitar and electric guitar. Tablatures and chords are parodies/interpretations of the original songs. You may use it for private study, scholarship, research or language learning purposes only