>
 >
Enthused 2

Enthused 2 Guitar Tabs

*Blink 182* - Enthused 2 chords, tabs, tablatures, lyrics

Guitar lessons | Add/correct | Request | Top 50 tabs Artists:  A B C D E F G H I J K L M N O P Q R S T U V W X Y Z 0-9

Enthused 2 Guitar Tabs – *Blink 182*

CD, Sheet music, Poster

Do you like Enthused 2? Share with your friends now
Bass TabsBass Tabs v2ChordsDrum TabsTabsTabs v2Tabs v3
Posted and Corrections By: Alicia 

This song was pretty much correct but had a few mistakes. I decided to fix them up
and post it. Hope you have fun, this is a great Blink 182 song, One of their Best !.


Intro 1: Strumming Pattern is off, listen to the song to get it (1x)
e|----------------------------------------------------------------------------------|
B|----------------------------------------------------------------------------------|
G|----------------------------------------------------------------------------------|
D|-7-7-7-7-7-7-5p4-5p4-0-------------5p4-5p4-0----------------------------5p4-5p4-0-|
A|-5-5-5-5-5-5-----------7-7-7-7-7-7------------9-9-9-9--7-7-7-7--5-5-5-5-----------|
E|-----------------------5-5-5-5-5-5------------7-7-7-7--5-5-5-5--3-3-3-3-----------|

Intro 2: Once again, strumming is off play this directly after Intro 1 (1x)
e|----------------------------------------------------------------------------------|
B|----------------------------------------------------------------------------------|
G|----------------------------------------------------------------------------------|
D|-7-7-7-7-7-7--5p4-5p4-0--9-9-9-9-9-9--5p4-5p4-0--4-4-4-4--------------------------|
A|-5-5-5-5-5-5-------------7-7-7-7-7-7-------------2-2-2-2--7-7-7-7--5-5-5-5--------|
E|----------------------------------------------------------5-5-5-5--3-3-3-3--------|

Bridge 1: (2x)
e|-----------------------------------------------------------------|
B|-----------------------------------------------------------------|
G|--7-7-7--12--11--7-7-7--12--11--9-9-9-9-9--7-7-7-7--9-9-9-9-9----|
D|--x-x-x---x---x--x-x-x---x---x--x-x-x-x-x--x-x-x-x--x-x-x-x-x----|
A|--5-5-5--10---9--5-5-5--10---9--7-7-7-7-7--5-5-5-5--7-7-7-7-7----|
E|-----------------------------------------------------------------|

Riff 1: (2x Slight Palm Mute)
e|------------------------------------|
B|------------------------------------|
G|--7-7-6h7--7-7-6--7-7-6h7--9-9-6----|
D|------------------------------------|
A|------------------------------------|
E|------------------------------------|

Strumming Pattern off. Played over top of "Am I strung out.." softly (4x)
e|------------------------------------|
B|------------------------------------|
G|------------------------------------|
D|--7-7-7-----------------------------|
A|--5-5-5--7-7-7--5-5-5--7-7-7--------|
E|---------5-5-5--3-3-3--5-5-5--------|


Verse 1: (2x) I think, play around. Whatever you think sounds best
e|--------------------------------------------------------|
B|--------------------------------------------------------|
G|--------------------------------------------------------|
D|--7-7-7-7-7-7-------------------------------------------|
A|--5-5-5-5-5-5--2-2-2-2-2-2--5-5-5-5-5-5--7-7-7-7-7-7----|
E|---------------0-0-0-0-0-0--3-3-3-3-3-3--5-5-5-5-5-5----|

Bridge 2: (1x) Strumming Pattern is off again, listen carefully for the chord changes
e|-------------------------------------------------------------------|
B|-------------------------------------------------------------------|
G|--7--9-7-6-------7--9-7-6-------9-7-9-7-9-7-12--9-7-9-7-9-7--------|
D|--x--x-x-x--7-5--x--x-x-x--7-5--x-x-x-x-x-x-x---x-x-x-x-x-x--5-----|
A|--5--7-5-4--x-x--5--7-5-4--x-x--7-5-7-5-7-5-10--7-5-7-5-7-5--x-----|
E|------------5-3------------5-3-------------------------------3-----|

Riff 1: (4x Slight Palm Mute)
e|------------------------------------|
B|------------------------------------|
G|--7-7-6h7--7-7-6--7-7-6h7--9-9-6----|
D|------------------------------------|
A|------------------------------------|
E|------------------------------------|

Bridge 2: (1x) 
e|-------------------------------------------------------------------|
B|-------------------------------------------------------------------|
G|--7--9-7-6-------7--9-7-6-------9-7-9-7-9-7-12--9-7-9-7-9-7--------|
D|--x--x-x-x--7-5--x--x-x-x--7-5--x-x-x-x-x-x-x---x-x-x-x-x-x--5-----|
A|--5--7-5-4--x-x--5--7-5-4--x-x--7-5-7-5-7-5-10--7-5-7-5-7-5--x-----|
E|------------5-3------------5-3-------------------------------3-----|

Verse 2: (4x) I think, play around. Whatever you think sounds best
e|--------------------------------------------------------|
B|--------------------------------------------------------|
G|--------------------------------------------------------|
D|--7-7-7-7-7-7-------------------------------------------|
A|--5-5-5-5-5-5--9-9-9-9-9-9--7-7-7-7-7-7--5-5-5-5-5-5----|
E|---------------7-7-7-7-7-7--5-5-5-5-5-5--3-3-3-3-3-3----|

Intro 1: (1x)
e|----------------------------------------------------------------------------------|
B|----------------------------------------------------------------------------------|
G|----------------------------------------------------------------------------------|
D|-7-7-7-7-7-7-5p4-5p4-0-------------5p4-5p4-0----------------------------5p4-5p4-0-|
A|-5-5-5-5-5-5-----------7-7-7-7-7-7------------9-9-9-9--7-7-7-7--5-5-5-5-----------|
E|-----------------------5-5-5-5-5-5------------7-7-7-7--5-5-5-5--3-3-3-3-----------|

Intro 2: (1x)
e|----------------------------------------------------------------------------------|
B|----------------------------------------------------------------------------------|
G|----------------------------------------------------------------------------------|
D|-7-7-7-7-7-7--5p4-5p4-0--9-9-9-9-9-9--5p4-5p4-0--4-4-4-4--------------------------|
A|-5-5-5-5-5-5-------------7-7-7-7-7-7-------------2-2-2-2--7-7-7-7--5-5-5-5--------|
E|----------------------------------------------------------5-5-5-5--3-3-3-3--------|

End on
e|-----|
B|-----|
G|-----|
D|--7--|
A|--5--|
E|-----|

That's it. The whole song is in order I think but it's late and I can't be bothered checking.





Comments


Popular *Blink 182* tabs & chords
Action 2 Bass Tabs
All The Small Things 6 Bass Tabs
Anthem Part Two Bass Tabs
Marlboro Man 1 Bass Tabs
Dogs Eating Dogs Chords
Dont Leave Me 1 Chords
*** A Dog Tabs
Dancing With Myself 2 Tabs
Dysentery Gary 1 Tabs
Feeling This Tabs


Song lyrics



↑ Back to top | Tablatures and chords are parodies/interpretations of the original songs. You may use it for private study, scholarship, research or language learning purposes only
© 2014 AZChords.com Contact us | Privacy policy | DMCA | Add/correct tabs | Request tabs | Top 50 tabs