» » »

*Blink 182*, First Date Tabs (ver.1)

Artists:  A B C D E F G H I J K L M N O P Q R S T U V W X Y Z # 

First Date Tabs (ver.1)

*Blink 182* Tabs
Rating:
0/5 (0 votes)
First  Date lessons Tabs too difficult? Try these video lessons and learn fast
                Name     - Andrew Dunn a.k.a Coolspot

Artist   - Blink-182
Song     - First Date
Tuning   - Standard
Comments - Easy to play, sounds good who could ask for more? 


Intro/Riff 1

E -0-----------------------------0---------------------------------------------
B ----1-----1-----3--1-----1--------1-----1-----3--1-----0---------------------
G -------0-----0--------0-----0--------0-----0--------0------------------------
D -----------------------------------------------------------------------------
A -----------------------------------------------------------------------------
E -----------------------------------------------------------------------------




E -0-----------------------------0---------------------------------------------
B ----1-----1-----3--1-----1--------1-----1-----3--1-----0--1------------------
G -------0-----0--------0-----0--------0-----0--------0------------------------
D -----------------------------------------------------------------------------
A -----------------------------------------------------------------------------
E -----------------------------------------------------------------------------


Verse

E ----------------------------------------------------------------------------- Verse x2 
B -----------------------------------------------------------------------------
G ----5--5-----5--5-----5--5-----5--5-----5--5-----5--5-----5--5-----5--5------
D -5--------5--------5--------5--------5--------5--------5--------5------------
A -----------------------------------------------------------------------------
E -----------------------------------------------------------------------------
   x  x  x  x  x  x  x  x  x  x  x  x  x  x  x  x  x  x  x  x  x  x  x  x


Chorus

E -----------------------------------------------------------------------------
B -----------------------------------------------------------------------------
G -----------------------------------------------------------------------------
D -5-5-5--5-5-5-------------------------5-5-5--5-5-5---------------------------
A -3-3-3--2-2-2--7-7-7-7--3-3-3--5-5-5--3-3-3--2-2-2--7-7-7-7--3-3-3--5-5-5----
E ---------------5-5-5-5--1-1-1--3-3-3----------------5-5-5-5--1-1-1--3-3-3----




E -----------------------------------------------------------------------------
B -----------------------------------------------------------------------------
G -----------------------------------------------------------------------------
D -5-5-5-5-5-5-5--5-5-5-5-5-5-5------------------------------------------------
A -3-3-3-3-3-3-3--2-2-2-2-2-2-2--7-7-7-7-7-7-7--3-3-3--5-5-5-------------------
E -------------------------------5-5-5-5-5-5-5--1-1-1--3-3-3-------------------




E -----------------------------------------------------------------------------
B -----------------------------------------------------------------------------
G -----------------------------------------------------------------------------
D -5-5-5-5-5-5-5--5-5-5-5-5-5-5------------------------------------------------
A -3-3-3-3-3-3-3--2-2-2-2-2-2-2--7-7-7-7-7-7-7--3-3-3--5-5-5-------------------
E -------------------------------5-5-5-5-5-5-5--1-1-1--3-3-3-------------------


Riff 1

E -0-----------------------------0---------------------------------------------
B ----1-----1-----3--1-----1--------1-----1-----3--1-----0---------------------
G -------0-----0--------0-----0--------0-----0--------0------------------------
D -----------------------------------------------------------------------------
A -----------------------------------------------------------------------------
E -----------------------------------------------------------------------------




E -0-----------------------------0---------------------------------------------
B ----1-----1-----3--1-----1--------1-----1-----3--1-----0--1------------------
G -------0-----0--------0-----0--------0-----0--------0------------------------
D -----------------------------------------------------------------------------
A -----------------------------------------------------------------------------
E -----------------------------------------------------------------------------


Verse

E ----------------------------------------------------------------------------- Verse x2 
B -----------------------------------------------------------------------------
G ----5--5-----5--5-----5--5-----5--5-----5--5-----5--5-----5--5-----5--5------
D -5--------5--------5--------5--------5--------5--------5--------5------------
A -----------------------------------------------------------------------------
E -----------------------------------------------------------------------------
   x  x  x  x  x  x  x  x  x  x  x  x  x  x  x  x  x  x  x  x  x  x  x  x


Chorus

E -----------------------------------------------------------------------------
B -----------------------------------------------------------------------------
G -----------------------------------------------------------------------------
D -5-5-5--5-5-5-------------------------5-5-5--5-5-5---------------------------
A -3-3-3--2-2-2--7-7-7-7--3-3-3--5-5-5--3-3-3--2-2-2--7-7-7-7--3-3-3--5-5-5----
E ---------------5-5-5-5--1-1-1--3-3-3----------------5-5-5-5--1-1-1--3-3-3----




E -----------------------------------------------------------------------------
B -----------------------------------------------------------------------------
G -----------------------------------------------------------------------------
D -5-5-5-5-5-5-5--5-5-5-5-5-5-5------------------------------------------------
A -3-3-3-3-3-3-3--2-2-2-2-2-2-2--7-7-7-7-7-7-7--3-3-3--5-5-5-------------------
E -------------------------------5-5-5-5-5-5-5--1-1-1--3-3-3-------------------




E -----------------------------------------------------------------------------
B -----------------------------------------------------------------------------
G -----------------------------------------------------------------------------
D -5-5-5-5-5-5-5--5-5-5-5-5-5-5------------------------------------------------
A -3-3-3-3-3-3-3--2-2-2-2-2-2-2--7-7-7-7-7-7-7--3-3-3--5-5-5-------------------
E -------------------------------5-5-5-5-5-5-5--1-1-1--3-3-3-------------------


Solo 1

E ----------------------------------------------------------------------------- Solo 1 x2
B -----------------------------------------------------------------------------
G -----------------------------------------------------------------------------
D -5-5-5-5-5-5-5-5-------------------------------------------------------------
A -3-3-3-3-3-3-3-3--2-2-2-2-2-2-2--3-3-3-3-3-3-3--5-5-5-5-5-5-5----------------
E ------------------0-0-0-0-0-0-0--1-1-1-1-1-1-1--3-3-3-3-3-3-3----------------
   x x x x x x x x  x x x x x x x  x x x x x x x  x x x x x x x


Solo 2

E ----------------------------------------------------------------------------- Solo 2 x4
B -----------------------------------------------------------------------------
G -5-5-5-5-5-5-5-5--9-9-9-9-9--5-5-1010101010--5-5--7-7-7-7-7-7-7--------------
D -x-x-x-x-x-x-x-x--x-x-x-x-x--x-x--x-x-x-x-x--x-x--x-x-x-x-x-x-x--------------
A -3-3-3-3-3-3-3-3--7-7-7-7-7--3-3--8-8-8-8-8--3-3--5-5-5-5-5-5-5--------------
E -----------------------------------------------------------------------------


Chorus

E -----------------------------------------------------------------------------
B -----------------------------------------------------------------------------
G -----------------------------------------------------------------------------
D -5-5-5--5-5-5-------------------------5-5-5--5-5-5---------------------------
A -3-3-3--2-2-2--7-7-7-7--3-3-3--5-5-5--3-3-3--2-2-2--7-7-7-7--3-3-3--5-5-5----
E ---------------5-5-5-5--1-1-1--3-3-3----------------5-5-5-5--1-1-1--3-3-3----




E -----------------------------------------------------------------------------
B -----------------------------------------------------------------------------
G -----------------------------------------------------------------------------
D -5-5-5-5-5-5-5--5-5-5-5-5-5-5------------------------------------------------
A -3-3-3-3-3-3-3--2-2-2-2-2-2-2--7-7-7-7-7-7-7--3-3-3--5-5-5-------------------
E -------------------------------5-5-5-5-5-5-5--1-1-1--3-3-3-------------------




E -----------------------------------------------------------------------------
B -----------------------------------------------------------------------------
G -----------------------------------------------------------------------------
D -5-5-5-5-5-5-5--5-5-5-5-5-5-5------------------------------------------------
A -3-3-3-3-3-3-3--2-2-2-2-2-2-2--7-7-7-7-7-7-7--3-3-3--5-5-5-------------------
E -------------------------------5-5-5-5-5-5-5--1-1-1--3-3-3-------------------


Outro/Riff 1

E -0-----------------------------0---------------------------------------------
B ----1-----1-----3--1-----1--------1-----1-----3--1-----0---------------------
G -------0-----0--------0-----0--------0-----0--------0------------------------
D -----------------------------------------------------------------------------
A -----------------------------------------------------------------------------
E -----------------------------------------------------------------------------




E -0-----------------------------0---------------------------------------------
B ----1-----1-----3--1-----1--------1-----1-----3--1-----0--1------------------
G -------0-----0--------0-----0--------0-----0--------0------------------------
D -----------------------------------------------------------------------------
A -----------------------------------------------------------------------------
E -----------------------------------------------------------------------------
            
Submit corrections

comments powered by Disqus
↑ Back to top | *Blink 182* Tabs for First Date. Lyrics for acoustic guitar and electric guitar. Tablatures and chords are parodies/interpretations of the original songs. You may use it for private study, scholarship, research or language learning purposes only