>
 >
Enthused

Enthused Bass Tabs

*Blink 182* - Enthused chords, tabs, tablatures, lyrics

Guitar lessons | Add/correct | Request | Top 50 tabs Artists:  A B C D E F G H I J K L M N O P Q R S T U V W X Y Z 0-9

Enthused Bass Tabs – *Blink 182*

CD, Sheet music, Poster

Do you like Enthused? Share with your friends now
Bass TabsBass Tabs v2ChordsDrum TabsTabsTabs v2Tabs v3
Here it is... enjoy!

Intro

G------------------------------------------------------|
D--------------------------------7-7-7777---5-5-5555---|
A---5-5-5555---7-7-7777---9-9-999----------------------|
E------------------------------------------------------|

G---------------------------------------------------------------------------|
D---------------------------------------------7-7-7777---5-5-555555555555---|
A---5-5-55555555555---7-7-77777777777--9-9-999------------------------------|
E---------------------------------------------------------------------------|

Pre Verse1 x2

G-------------------------------------|
D-------------------------------------|
A---55-555-555-555---22-222-222-222---|
E-------------------------------------|

G------------------------------------------------|
D------------------------------------------------|
A------------------------------------------------|
E--55-555-555-555---33-333-333333333---55555555--|

Pre Verse2 x2

G------------------------------------------------|
D------------------------------------------------|
A----55555555---------------------------------5--|
E--------------00000000--33333333--55555555------|

Verse x2

G--------------------------------------------------------------------|
D--------------------------------------------------------------------|
A---171717--55555555--77777777--1010101010101010--1212121212121212---|
E--------------------------------------------------------------------|

Toms solo
G------------------------------------------------|
D------------------------------------------------|
A---55555555--22222222---------------------------|
E-----------------------555555555--33333333------|

chorus x4
G------------------------------------------------|
D------------------------------------------------|
A---55555555--22222222---------------------------|
E-----------------------00000000--33333333-------|


Repeat Toms solo after the chorus

Verse #2 x2

G------------------------------------------------|
D------------------------------------------------|
A---55-555-5--22-222-2--55-555-5-33-333----------|
E------------------------------------------------|


G------------------------------------------------|
D------------------------------------------------|
A---55-555-5-22-222-2----------------------------|
E---------------------5--------------------------|

Repeat verse #2 once


Outro


G------------------------------------------------------|
D--------------------------------7-7-7777---5-5-5555---|
A---5-5-5555---7-7-7777---9-9-999----------------------|
E------------------------------------------------------|

G----------------------------------------------------------------------------|
D---------------------------------------------77777777-77777777--------------|
A---5-5-55555555555---7-7-77777777777--9-9-999-------------------5-----------|
E----------------------------------------------------------------------------|

Here are the lyrics:

Am I, strung out, crazy or not allowed
To be the one who gets stupid over you
Lazy, laidback, maybe you're just on crack
Why am I the one who gets f**ked up and confused
She doesn't care at all
She doesn't care about those times we never shared at all
If I were the last of the few who always ask


Would you still be the same person that I knew
And If it's for me
Another boring story
I swear I'll act enthused

Enjoy!





Comments


Popular *Blink 182* tabs & chords
American Pie Theme Song 1 Bass Tabs
All Of This 2 Drum Tabs
Feeling This Drum Tabs
Feeling This 1 Drum Tabs
Adams Song 7 Tabs
Cacophony Tabs
Dick Lips 3 Tabs
First Date 1 Tabs
Girl At The Rock Show 1 Tabs
I Know A Guy Tabs


Song lyrics



↑ Back to top | Tablatures and chords are parodies/interpretations of the original songs. You may use it for private study, scholarship, research or language learning purposes only
© 2014 AZChords.com Contact us | Privacy policy | DMCA | Add/correct tabs | Request tabs | Top 50 tabs