» » »

*Blink 182*, Enthused Tabs (ver.1)

Artists:  A B C D E F G H I J K L M N O P Q R S T U V W X Y Z # 

Enthused Tabs (ver.1)

*Blink 182* Tabs
Rating:
0/5 (0 votes)
Enthused lessons Tabs too difficult? Try these video lessons and learn fast
                PROPS GO TO: joebob

good song but i didnt do as good of a job this time o well look for more tabs by me and have fun!
Intro 1: You'll figure out the strumming when you listen to the CD (p= pull off)
E|-----------------------------------------------------------------------------------
B|-----------------------------------------------------------------------------------
G|-----------------------------------------------------------------------------------
D|---7-7-7-7-7-7-5p4-5p4--------------5p4-5p4----------------------------------------
A|---5-5-5-5-5-5----------7-7-7-7-7-7----------9-9-9-9-9-9--7-7-7-7-7-7--5-5-5-5-5-5-
E|------------------------5-5-5-5-5-5----------7-7-7-7-7-7--5-5-5-5-5-5--3-3-3-3-3-3-

Continue
E|---------------|
B|---------------|
G|---------------|
D|-----5p4-5p4---|
A|---------------|
E|---------------|

Intro 2: You'll get the strumming; It's more than just 1 strum 
E|---------------------------------------|
B|---------------------------------------|
G|---7---12-11--7---12-11--9--7--9-------|
D|---x---x--x---x---x--x---x--x--x-------|
A|---5---10-9---5---10-9---7--5--7-------|
E|---------------------------------------|

Riff 1: (h= hammer on)
E|--------------------------------------------|
B|--------------------------------------------|
G|---7-7-6h7--7-7-6h7--7-7-6h7--9-9-6h7-------|
D|--------------------------------------------|
A|--------------------------------------------|
E|--------------------------------------------|

Oh, and by the way, the intro goes 2 times so here's the second part:
E|-----------------------------------------------------------------------------------
B|-----------------------------------------------------------------------------------
G|-----------------------------------------------------------------------------------
D|---7-7-7-7-7-7--5p4-5p4--9-9-9-9-9-9--5p4-5p4--4-4-4-4-4-4-------------------------
A|---5-5-5-5-5-5-----------7-7-7-7-7-7-----------2-2-2-2-2-2--7-7-7-7-7-7------------
E|------------------------------------------------------------5-5-5-5-5-5------------

Continue
E|------------------------------------|
B|------------------------------------|
G|------------------------------------|
D|----------------5p4-5p4-------------|
A|---5-5-5-5-5-5----------------------|
E|---3-3-3-3-3-3----------------------|

Verse:
E|----------------------------------------------------------------------------|
B|----------------------------------------------------------------------------|
G|----------------------------------------------------------------------------|
D|---7-7-7-7-7-7-7-7----------------------------------------------------------|
A|---5-5-5-5-5-5-5-5--2-2-2-2-2-2-2-2--5-5-5-5-5-5-5-5--7-7-7-7-7-7-7-7-------|
E|--------------------0-0-0-0-0-0-0-0--3-3-3-3-3-3-3-3--5-5-5-5-5-5-5-5-------|

Bridge: You'll get the strumming
E|----------------------------------------------------------------------------------|
B|----------------------------------------------------------------------------------|
G|---7--9-7-6--------7--9-7-6--------9--7--9--7--9--7--12---9--7--9--7--9--7--------|
D|---x--x-x-x--7-5---x--x-x-x--7-5---x--x--x--x--x--x--x----x--x--x--x--x--x---7--5-|
A|---5--7-5-4--x-x---5--7-5-4--x-x---7--5--7--5--7--5--10---7--5--7--5--7--5---x--x-|
E|-------------5-3-------------5-3---------------------------------------------5--3-|

Verse 2 I think:
E|-------------------------------------------------------------------------------|
B|-------------------------------------------------------------------------------|
G|-------------------------------------------------------------------------------|
D|---7-7-7-7-7-7-7-7-------------------------------------------------------------|
A|---5-5-5-5-5-5-5-5--9-9-9-9-9-9-9-9--7-7-7-7-7-7-7-7--5-5-5-5-5-5-5-5----------|
E|--------------------7-7-7-7-7-7-7-7--5-5-5-5-5-5-5-5--3-3-3-3-3-3-3-3----------|

I am sorry that I didn't put all of the strumming but I'm pretty sure you'll figure it out! Enjoy!
            
Submit corrections

comments powered by Disqus
↑ Back to top | *Blink 182* Tabs for Enthused. Lyrics for acoustic guitar and electric guitar. Tablatures and chords are parodies/interpretations of the original songs. You may use it for private study, scholarship, research or language learning purposes only