>
 >
Enthused 1

Enthused 1 Guitar Tabs

*Blink 182* - Enthused 1 chords, tabs, tablatures, lyrics

Guitar lessons | Add/correct | Request | Top 50 tabs Artists:  A B C D E F G H I J K L M N O P Q R S T U V W X Y Z 0-9

Enthused 1 Guitar Tabs – *Blink 182*

CD, Sheet music, Poster

Do you like Enthused 1? Share with your friends now
Bass TabsBass Tabs v2ChordsDrum TabsTabsTabs v2Tabs v3
++++++++++++++++++++++++++
+ Blink 182              +
+ "Enthused"             +
+ Dude Ranch             +
++++++++++++++++++++++++++

Intro 
e----------------------------------------------------|
B----------------------------------------------------|
G--7-7-7777------------------------------------------|
D--7-7-7777--5p4p0-4p0-0-0--7-7-7777--5p4p0-4p0-0-0--|
A--5-5-5555-----------------7-7-7777-----------------|
E---------------------------5-5-5555-----------------|

e--------------------------+---------------|
B--------------------------+---------------|
G--------------------------+---------------|
D--9-9-999-7-7-777-5-5-555-+-5p4p0-4p0-0-0-|
A--9-9-999-7-7-777-5-5-555-+---------------|
E--7-7-777-5-5-555-3-3-333-+---------------|

Post-Intro (x2)
e--------------------------------------------------------|
B--------------------------------------------------------|
G--77-777-777-77-12-12-11-11--77-777-777-77-12-12-11-11--|
D--xx-xxx-xxx-xx--x--x--x--x--xx-xxx-xxx-xx--x--x--x--x--|
A--55-555-555-55-10-10--9--9--55-555-555-55-10-10--9--9--|
E--------------------------------------------------------|

e----------------------------------------|
B----------------------------------------|
G--99-999-999-999-77-777-777-99-999-999--|
D--xx-xxx-xxx-xxx-xx-xxx-xxx-xx-xxx-xxx--|
A--77-777-777-777-55-555-555-77-777-777--|
E----------------------------------------|

Pre-Verse
e------------------|---------------|-----------------|----------------|
B------------------|---------------|-----------------|----------------|
G----7-----7---6h7-|---7-----7---6-|---7-----7---6h7-|---9-----9---6--|
D------------------|---------------|-5---5-5---5-----|-7---7-7---7----|
A--5---5-5---5-----|-7---7-7---7---|-----------------|----------------|
E------------------|---------------|-----------------|----------------|

Verse
e---------------------------------------|
B---------------------------------------|
G--77777777-77777777-77777777-99999999--|
D--77777777-77777777-55555555-77777777--|
A--55555555-77777777-55555555-77777777--|
E---------------------------------------|

Post-Verse
e-----------------------------------------------|
B-----------------------------------------------|
G--77777777-77777777-9-77-6---------------------|
D--xxxxxxxx-xxxxxxxx-x-xx-x-7-5--55555555-(x2)--|
A--55555555-55555555-7-55-4-x-x--xxxxxxxx-------|
E---------------------------5-3--33333333-------|

e-------------------------------------------------------|
B-------------------------------------------------------|
G--9-7-777-9-7-777-9-7-77-9-12-12-12-12-12-12-12-12-12--|
D--x-x-xxx-x-x-xxx-x-x-xx-x--x--x--x--x--x--x--x--x--x--|
A--7-5-555-7-5-555-7-5-55-7-10-10-10-10-10-10-10-10-10--|
E-------------------------------------------------------|

e-----------------------------------------|
B-----------------------------------------|
G--9-7-777-9-7-777-9-7-777----------------|
D--x-x-xxx-x-x-xxx-x-x-xxx-77-5-55555555--|
A--7-5-555-7-5-555-7-5-555-xx-x-xxxxxxxx--|
E--------------------------55-3-33333333--|

Last Verse
e---------------------------------------|
B---------------------------------------|
G--77777777-----------------------------|
D--77777777-99999999-77777777-55555555--|
A--55555555-99999999-77777777-55555555--|
E-----------77777777-55555555-33333333--|

e-------------------------------------|
B---------------------(Palm Muted..)--|
G--77777777---------------------------|
D--77777777-99999999--77-777--55-555--|
A--55555555-99999999--77-777--55-555--|
E-----------77777777--55-555--33-333--|

e-----------------------|
B-----------------------|
G--77777777-------------|
D--77777777-99999999-7--|
A--55555555-99999999-7--|
E-----------77777777-5--|

e---------------------------------------|
B---------------------------------------|
G--77777777-----------------------------|
D--77777777-99999999-77777777-55555555--|
A--55555555-99999999-77777777-55555555--|
E-----------77777777-55555555-33333333--|

Ending
e----------------------------------------------------|
B----------------------------------------------------|
G--7-7-7777------------------------------------------|
D--7-7-7777--5p4p0-4p0-0-0--7-7-7777--5p4p0-4p0-0-0--|
A--5-5-5555-----------------7-7-7777-----------------|
E---------------------------5-5-5555-----------------|

e------------------------------------------|
B------------------------------------------|
G------------------------------------------|
D--9-9-999-7-7-777-5-5-555--5p4p0-4p0-0-0--|
A--9-9-999-7-7-777-5-5-555-----------------|
E--7-7-777-5-5-555-3-3-333-----------------|

e----------------------------------------------------|
B----------------------------------------------------|
G--7-7-7777------------------------------------------|
D--7-7-7777--5p4p0-4p0-0-0--7-7-7777--5p4p0-4p0-0-0--|
A--5-5-5555-----------------7-7-7777-----------------|
E---------------------------5-5-5555-----------------|

e---------------------------------|
B---------------------------------|
G--------------------------7---7--|
D--9-9-999-77-777-77777777-7---7--|
A--9-9-999-77-777-77777777-5---5--|
E--7-7-777-55-555-55555555--------|


+++++++++++++++++++++++++++++++++++++++++++++++++++++++++++++++++++++++++
+ I've done it!! Finally someone has tabed "ENTHUSED"!!! It's a hard    +
+ song as far as Blink songs go, but finally it has arrived, "ENTHUSED" +
+ in its entirety is all right here, enjoy and have fun with this       +
+ awesome punk song!!                                                   +
+ Look for the complete "Take off Your pants And jacket" album !110%!   +
+++++++++++++++++++++++++++++++++++++++++++++++++++++++++++++++++++++++++





Comments


Popular *Blink 182* tabs & chords
Feels So Good Bass Tabs
Adams Song Chords
All The Small Things 5 Chords
Enthused Chords
Tv Chords
Enthused Drum Tabs
Aliens Exist 4 Tabs
Easy Target 4 Tabs
Enthused Tabs
Im Sorry 2 Tabs


Song lyrics



↑ Back to top | Tablatures and chords are parodies/interpretations of the original songs. You may use it for private study, scholarship, research or language learning purposes only
© 2014 AZChords.com Contact us | Privacy policy | DMCA | Add/correct tabs | Request tabs | Top 50 tabs