» » »

BöHse Onkelz, Nichts Ist FüR Die Ewigkeit Tabs (ver.1)

Artists:  A B C D E F G H I J K L M N O P Q R S T U V W X Y Z # 

Nichts Ist FüR Die Ewigkeit Tabs (ver.1)

BöHse Onkelz Tabs
 Rating:
4.2/5 (6 votes)
Nichts Ist FüR Die Ewigkeit lessons Tabs too difficult? Try these video lessons and learn fast
                
Intro:

|--0---0---0---0---0---0---0---0-|--0---0---0---0---0---0---0---0--|
|----0---------------0-----------|----0---------------0------------|
|--------0---------------0-------|--------0---------------0--------|
|------------4---------------4---|------------4---------------4----|
|7---------------7---------------|5---------------5----------------|
|--------------------------------|---------------------------------|

|--0---0---0---0---0---0---0---0-|--0---0----0---0---0---0---0---0-|
|----0---------------0-----------|----0----------------0-----------|
|--------0---------------0-------|--------0----------------0-------|
|------------2---------------2---|-------------4---------------4---|
|3---------------3---------------|5----------------5---------------|
|--------------------------------|---------------------------------|

1. Strophe (Intro-Riff)

Glaubst du alles, was ich sage
Glaubst du, du weißt wer ich bin
Stellst du niemals Fragen
Warum wir wurden wie wir sind
Die Ironie mit der wir spielen
Die ihr so schwer versteht
Der Schatten im Verstand
Der in jedem von uns le___bt

Bridge:

E |----------------------------------|----------------------------------|
H |*--------------------------------*|*--0---0---0---0---0---0---0---0-*|
G |---0---0---0---0---0---0---0---0--|-----0-------0-------0------------|
D |-----2-------2-------2------------|----------------------------------|
A |*----------------3-------5---3---*|*----------------3-------5---3---*|
E |-0-------3------------------------|-0-------3------------------------|

Refrain:

E5
Nichts ist für die Ewigkeit
G5
Nichts ist wie es war
A5				        C5
Nur vier Jungs aus Frankfurt sind schon lange, lange da
    E5
Die Welt hat uns verlangt
               G5
Sie hat nichts besseres verdient
     A5			      A5-H5-C5-
Habt ihr noch nicht erkannt ?
Warum es "Böhse Onkelz" gibt

Zwischenspiel (Intro)

2. Strophe (Intro-Riff)

Glaubst du, daß ich Kinder töten kann
Glaubst du, ich bin Nekrophil
Denkst du, daß ich nur besoffen bin
Wie es ist erfährst du nie
Fragen über Fragen
Es ist nicht leicht uns zu verstehn
Denken kann nichts schaden
Vielleicht kannst du, vielleicht kannst du die Wahrheit sehn

Bridge + Refrain

Zwischenspiel (wie Intro) ausklingen lassen

Solo:
----------------------I---------------I---------------------I------------------------
----------------------I---------------I---------------------I------------------------
----------------------I---------------I---------------------I------------------------
-------------5--4-----I--------/9--7--I------------5--4-----I------------------------
------5--7--------7p5-I-7~~~~---------I-----5--7--------7p5-I-3~~~~-5p3h5p3h5p3h5p3--
---7------------------I---------------I--7------------------I------------------------

2x Refrain

2x Solo als Outro (fade out)
            
Submit corrections

comments powered by Disqus
↑ Back to top | BöHse Onkelz Tabs for Nichts Ist FüR Die Ewigkeit. Lyrics for acoustic guitar and electric guitar. Tablatures and chords are parodies/interpretations of the original songs. You may use it for private study, scholarship, research or language learning purposes only