>
 >
Wir Ham' Noch Lange Nicht Genug

Wir Ham' Noch Lange Nicht Genug Guitar Tabs

BöHse Onkelz - Wir Ham' Noch Lange Nicht Genug chords, tabs, tablatures, lyrics

Guitar lessons | Add/correct | Request | Top 50 tabs Artists:  A B C D E F G H I J K L M N O P Q R S T U V W X Y Z 0-9

Wir Ham' Noch Lange Nicht Genug Guitar Tabs – BöHse Onkelz

CD, Sheet music, Poster

Do you like Wir Ham' Noch Lange Nicht Genug? Share with your friends now
Tabs
Böhse Onkelz - Wir ham noch lange nicht genug

Intro:

   Am  C                 G                 Am                F
e ---|-----------------|-----------------|-----------------|-----------------
H ---|---------6---5---|---------6---5---|-----------------|-6---5-------5---
G ---|-5-5-7-5---5---5-|-5-5-7-5---5-----|-----5---7---5---|---5-----7-----5-
D -2-|-----------------|---------------5-|-5-5---5---5---5-|-------5---5-----
A -0-|-----------------|-----------------|-----------------|-----------------
E ---|-----------------|-----------------|-----------------|-----------------                    

C              G           Am           F
Endlich wieder neue Noten, neue Schweinerein
C             G            F
Fiese Lieder, harte Worte, so soll es sein
C                     G                      Am             F
Ich seh euch schon im Dreieck springen, eure Eltern hör ich schrein
C            G             F                       C
Lieber Gott, steh uns bei, daß muß die neue Onkelz sein
             G                 Am            F
Wir ham noch lange nicht, noch lange nicht genug
C          G           F
Auf in ein neues Jahr, wir ham noch lange nicht genug

Interlude: 

    Am                 C                 D                 F
e |-----------------|-----------------|-----------------|----------------
H |-----------------|-----------------|-----------------|----------------
G |-----------------|-----------------|-----------------|----------------
D |----------3-2-0--|----------3-2-0--|--0---0---3-2-0--|--3---3---3-2-0-
A |--0---0----------|--3---3----------|-----------------|----------------
E |-----------------|-----------------|-----------------|----------------

    Am                 C                 D                 F
e |-----------------|-----------------|-----------------|----------------
H |-----------------|-----------------|-----------------|----------------
G |-----------------|-----------------|-----------------|----------------
D |----------3-2-0--|----------3-2-0--|--0---0---3-2-0--|--3---3---------
A |--0---0----------|--3---3----------|-----------------|---------2------
E |-----------------|-----------------|-----------------|------------3-3-

    Am                         G        Am
e |-----------------|-----------------|-----------------|-----------------
H |-----------------|-----------------|-----------------|-----------------
G |-----------------|-----------------|-----------------|-----------------
D |-2-2-2-2-2-2-2-2-|-2-2-2-2---------|-2-2-2-2-2-2-2-2-|-2-2-2-2-2-2-2-2-
A |-0-0-0-0-0-0-0-0-|-0-0-0-0-2-------|-0-0-0-0-0-0-0-0-|-0-0-0-0-0-0-0-0-
E |-----------------|-----------3--3--|-----------------|-----------------

     C                G               Am               F
Wo Genie und Wahnsinn sich verbinden, Worte nicht nach Lügen stinken
C                 G               F                                 C
Gibt es noch 'nen andern Weg, der steinig ist, aber den es lohnt zu gehn
             G                 Am            F
Wir ham noch lange nicht, noch lange nicht genug
C          G           F
Auf in ein neues Jahr, wir ham noch lange nicht genug

Solo:

    C          G       Am         F
e |-0-~~~~~~-|-------|-0-~~~~~~-|-------------
H |-1-~~~~~~-|-------|-1-~~~~~~-|-----1/5-3h5-
G |-0-~~~~~~-|-------|-0-~~~~~~-|-0h2---------
D |----------|-------|----------|-------------
A |----------|-------|----------|-------------
E |----------|-------|----------|-------------

    C          G                Am         F
e |-3-~~~~~~-|---5-3-1-3--1-0-|----------|-------------
H |----------|----------------|-3-1------|-------3---5-
G |----------|----------------|-----0----|-----5-------
D |----------|----------------|----------|-------------
A |----------|----------------|----------|-------------
E |----------|----------------|----------|-------------

    C          G             Am         F
e |----------|-------------|----------|-------------
H |-3--------|-----1-3/5-3-|----------|-------------
G |---5------|---2---------|--5-------|-------------
D |----------|-------------|----------|-------------
A |----------|-------------|----------|-------------
E |----------|-------------|----------|----10\gliss-

    C                 G               Am         F
e |-----------------|---------------|----------|-------15-----------
H |-5-5-5-5-5-5-5-5-|-7-9---9-7---5-|-/gliss---|-15b17----17rb15-13-
G |-5-5-5-5-5-5-5-5-|---------------|----------|--------------------
D |-5-5-5-5-5-5-5-5-|---------------|----------|--------------------
A |-----------------|---------------|----------|--------------------
E |-----------------|---------------|----------|--------------------

4x Intro-Riff
2x Refrain
1x Interlude => auf A5 ausklingen lassen





Comments


Popular BöHse Onkelz tabs & chords
Terpentin Bass Tabs
10 Jahre Tabs
Auf Gute Freunde Tabs
Das Wunder Der PersöNlichkeit Tabs
Die Firma Tabs
Es Tabs
Es 1 Tabs
Keine Ist Wie Du Tabs
Matapolo Tabs
Nenn' Mich Wie Du Willst Tabs


Song lyrics



↑ Back to top | Tablatures and chords are parodies/interpretations of the original songs. You may use it for private study, scholarship, research or language learning purposes only
© 2014 AZChords.com Contact us | Privacy policy | DMCA | Add/correct tabs | Request tabs | Top 50 tabs