>
 >
Keine Amnestie FüR Mtv

Keine Amnestie FüR Mtv Guitar Tabs

BöHse Onkelz - Keine Amnestie FüR Mtv chords, tabs, tablatures, lyrics

Guitar lessons | Add/correct | Request | Top 50 tabs Artists:  A B C D E F G H I J K L M N O P Q R S T U V W X Y Z 0-9

Keine Amnestie FüR Mtv Guitar Tabs – BöHse Onkelz

CD, Sheet music, Poster

Do you like Keine Amnestie FüR Mtv? Share with your friends now
Tabs
FIGURE 1

e|---------------------------------------|
h|--( watch for the ryhtm )--------------|
g|---------------------------6 x---------|
d|---------------------------------------|
a|---------------------------------------|
E|--1-1-1-1-1-1-1-1-1-1-1-1-1------------|

e|-------------------------|
h|-------------------------|
g|--10----6----------------|
d|--10----6-----8----------|
a|--8-----4-----8----------|
E|--------------6----------|

FIGURE 1 ( 1x )

e|-------------------------|
h|-------------------------|
g|-------------------------|
d|-------------------------|
a|--8--6--4-----6----------|
E|-----------6-------------|

MAIN RIFF ( 2x )

e|-------------------------------------|
h|-------------------------------------|
g|----------------13-13-13-------------|
d|--3-3-3-3-3-3---13-13-13---8-8-8-----|
a|--3-3-3-3-3-3---11-11-11---8-8-8-----|
E|--1-1-1-1-1-1--------------6-6-6-----|

VERSE ( 4x )

e|-----------------------------------------------------|
h|-----------------------------------------------------|
g|------------------------6---------6------------------|
d|--3-------------3---3---6---------6---8---------8----|
a|--3-------------3---3---4-4-4-4-4-4---8---------8----|
E|--1-1-1-1-1-1-1-1-1-1-----------------6-6-6-6-6-6----|
      . . . . . .   .

Pre REFRAIN ( 4x )

e|---------------------------|
h|---------------------------|
g|------------6--------------|
d|--3---------6----8---------|
a|--3--~------4----8---------|
E|--1--~-----------6---------|

REFRAIN ( 2x )

e|-----------------------------------------------------|
h|-----------------------------------------------------|
g|------------------------6---------6------------------|
d|--3-------------3---3---6---------6---8---------8----|
a|--3-------------3---3---4-4-4-4-4-4---8---------8----|
E|--1-1-1-1-1-1-1-1-1-1-----------------6-6-6-6-6-6----|

VERSE ( 4x )
Pre REFRAIN ( 4x )

BRIDGE
 just play a fm chord

SOLO ( rhytm as refrain )

e|-------------------------------------------------------|
h|----------------------------------------4--------------|
g|---------------3b5-3-1---1--------------3b5-1h3p1---1--|
d|-------------1---------3--------------1-----------3----|
a|---------1-3----------------------1-3------------------|
E|--1--1-4-------------------1--1-4----------------------|

e|-------------------------------------------------------|
h|--6-6---6-6---6-6---6-6--------------------------------|
g|-----8b----8b----8b----8b---3-3p1h3p1---1-3p1---1------|
d|--------------------------------------3-------3--------|
a|-------------------------------------------------------|
E|-------------------------------------------------------|

e|--11b-11-11b-11-11b-11-11b--11-8----8-11-11-11-8----8--|
h|---------------------------------11--------------11----|
g|-------------------------------------------------------|
d|-------------------------------------------------------|
a|-------------------------------------------------------|
E|-------------------------------------------------------|

Pre REFRAIN

REFRAIN ( some breaks... listen to the song )





Comments


Popular BöHse Onkelz tabs & chords
Koma Bass Tabs
10 Jahre Tabs
11/97 Tabs
Ausrufezeichen Tabs
Das Leben Ist Ein Spiel Tabs
Deutschland Tabs
Es Tabs
Matapolo Tabs
Nenn' Mich Wie Du Willst Tabs
Wir Ham' Noch Lange Nicht Genug Tabs


Song lyrics



↑ Back to top | Tablatures and chords are parodies/interpretations of the original songs. You may use it for private study, scholarship, research or language learning purposes only
© 2014 AZChords.com Contact us | Privacy policy | DMCA | Add/correct tabs | Request tabs | Top 50 tabs