» » »

BöHse Onkelz, Auf Gute Freunde Tabs (ver.1)

Artists:  A B C D E F G H I J K L M N O P Q R S T U V W X Y Z # 

Auf Gute Freunde Tabs (ver.1)

BöHse Onkelz Tabs
 Rating:
4/5 (4 votes)
Auf Gute Freunde lessons Tabs too difficult? Try these video lessons and learn fast
1
                Intro 
 ^ = Saite ziehen   (bend)

Gitarre 
e|--------------------------------------------------------------------| 
B|--------------------------------------------------------------------| 
G|--------------------------------------------------------------------| 
D|--------------------------------------------------------------------| 
A|-------5^----------5^-------------------5^----------5^--------------| 
E|-5-6-7-----7-5-6-7----7-5-6-7-----5-6-7----7-5-6-7------7-----------| 

Bass setzt beim 3.mal ein:
G|--------------------------------------------------------------------| 
D|--------------------------------------------------------------------| 
A|--------------------------------------------------------------------| 
E|-5-7----------------------------7-3---------------------3-7---------| 

G|--------------------------------------------------------------------| 
D|--------------------------------------------------------------------| 
A|--------------------------------------------------------------------| 
E|-3-7----------------------------7-3---------------------------------| 

G|--------------------------------------------------------------------| 
D|--------------------------------------------------------------------| 
A|--------------------------------------------------------------------| 
E|-7-7-7-7-7-7-7-7-7-7-7-7-7-7-7-7-3-3-3-3-3-3-3-3-3-3-3-3-3----------| 

G|--------------------------------------------------------------------| 
D|--------------------------------------------------------------------| 
A|--------------------------------------------------------------------| 
E|-7-7-7-7-7-7-7-7-7-7-7-7-7-7-7-7-3-3-3-3-3-3-3-3-3-3-3-3-3----------| 

Verse: (Ich glaub jeder von euch weiß, wann abgedämpft werden muß)
B           G 
Verschüttete Träume 
D                 A A G# A A# B 
Bilder aus alten Tagen 
    B                  G 
Vom Wahnsinn, den ich lebte 
D                      A A G# A A# B 
Und was sie mir heute sagen 
B              G 
Ich schlief zu wenig 
D             A A G# A A# B 
Und ich trank zuviel 
B              G 
Die Schmerzen im Kopf 
     D                A 
Waren ein vertrautes Gefühl 


Chorus:
B 
Ich trinke auf 
         G 
Auf gute Freunde 
D         A 
Verlorene Liebe 
B        G 
Auf alte Götter 
D              A 
Und auf neue Ziele 
       B                G 
Auf den ganz normalen Wahnsinn 
D                    A 
Auf das, was einmal war 
B                  G 
Darauf, daß alles endet 
D               A 
Auf ein neues Jahr 
Auf ein neues Jahr 


Intro:

Verse:
Blutige Küsse 
Bittere Pillen 
Vom Schicksal gefickt 
Und immer drei Promille 
Ich war Teil der Lösung 
Und mein größtes Problem 
Ich stand vor mir 
Und konnte mich nicht sehen 


Chorus:

Bridge (Der Reiz war größer ...)
G A D B

Solo:
e|--------------------------------------------------------------------| 
B|--------------------------------------------------------------------| 
G|--------------------------------------------------------------------| 
D|--------------------------------------------------------------------| 
A|----------------------------9-7----7------7-------------------------| 
E|-7-10-9--7-9-7--7-10-9--7-9-----10---9-10---10-9--------------------| 

e|--------------------------------------------------------------------| 
B|--------------------------------------------------------------------| 
G|-------------------------------------------7------------------------| 
D|-------------------------------------7-7-9---9-7--------------------| 
A|----------------------------9-7-9-10--------------------------------| 
E|-7-10-9--7-9-7--7-10-9--7-9-----------------------------------------| 

e|-7-7--7-5---------------7-5-------------------7-5---5-7-5---5-7-5---| 
B|----------7-5---5---7-7-----7-5---5>7<5---5-------7-------7-------7-| 
G|--------------7-----------------7-------7---------------------------| 
D|--------------------------------------------------------------------| 
A|--------------------------------------------------------------------| 
E|--------------------------------------------------------------------| 

e|-5-7-5---5--10-7----7-10-7----7-10-7----7---------------------------| 
B|-------7---------10--------10--------10-----------------------------| 
G|--------------------------------------------------------------------| 
D|--------------------------------------------------------------------| 
A|--------------------------------------------------------------------| 
E|--------------------------------------------------------------------| 

e|-14-14-14--12-12-12-10-10-10-9-9-9-10-12----------------------------| 
B|--------------------------------------------------------------------| 
G|--------------------------------------------------------------------| 
D|--------------------------------------------------------------------| 
A|--------------------------------------------------------------------| 
E|--------------------------------------------------------------------| 

Bass während dem Solo: B G D A

Verse:
Alles nur Splitter 
Im Treibsand meiner Seele 
Nur wenige Momente 
In einem Leben 
Ich höre himmlisches Gelächter 
Wenn ich dran denke wie ich war 
An das Rätsel was ich lebte 
Und den Gott, den ich nicht sah 

2 mal Chorus 
2 mal Intro 

(Bass immer Note A)

Ja, das ist der ganze Song! Viel Spaß!
            
Submit corrections

comments powered by Disqus
↑ Back to top | BöHse Onkelz Tabs for Auf Gute Freunde. Lyrics for acoustic guitar and electric guitar. 1 Tablatures and chords are parodies/interpretations of the original songs. You may use it for private study, scholarship, research or language learning purposes only