» » »

BöHse Onkelz, Keine Ist Wie Du Tabs (ver.1)

Artists:  A B C D E F G H I J K L M N O P Q R S T U V W X Y Z # 

Keine Ist Wie Du Tabs (ver.1)

BöHse Onkelz Tabs
 Rating:
4/5 (4 votes)
Keine Ist Wie Du lessons Tabs too difficult? Try these video lessons and learn fast
1
                
Intro:

------------------------------
------------------------------
------------------------------
---7-6------------------------ 4x dann E5 klingen lassen
---5-4-7-9-6---2-4-5-4--x-x---
-------5-7-4---0-2-3-2--x-x---

-----------------------------------------
-----------------------------------------
-----------------------------------------
--9-9-9-9-9-9-9-9-9-9-9-9-9~~-12~~-14~~--
--7-7-7-7-7-7-7-7-7-7-7-7-7~~-10~~-12~~--
-----------------------------------------

-----------------------------------------
-----------------------------------------
-----------------------------------------
--9-9-9-9-9-9-9-9-9-9-9-9-9~~-12~~-7~~---
--7-7-7-7-7-7-7-7-7-7-7-7-7~~-10~~-5~~---
-----------------------------------------

        E5               
Sie war meine erste Liebe, sie war wunderschön

Sie lächelte mich an, es war um mich geschehn
          H5        
Sie drang tief in meine Haut, dies Gefühl vergeß ich nie
       E5
Diesen bittersüßen Schmerz, keine andre ist wie sie

Refrain:

G5   D5      E5            C5
  Oh oh oh - Keine ist wie Du
G5   D5      E5            C5
  Oh oh oh - Keine ist wie Du

   E5
Es kam die Zeit, sie war allein, es mußte was passiern

Ich fragte sie "Was darf's denn sein ?", sie sagte "Tätowiern!"
          H5
Sie drang tief in meine Haut, dies Gefühl vergeß ich nie
       E5
Diesen bittersüßen Schmerz, keine andre ist wie sie

Refrain
            
Submit corrections

comments powered by Disqus
↑ Back to top | BöHse Onkelz Tabs for Keine Ist Wie Du. Lyrics for acoustic guitar and electric guitar. 1 Tablatures and chords are parodies/interpretations of the original songs. You may use it for private study, scholarship, research or language learning purposes only