» » »

BöHse Onkelz, Kirche Tabs (ver.1)

Artists:  A B C D E F G H I J K L M N O P Q R S T U V W X Y Z # 

Kirche Tabs (ver.1)

BöHse Onkelz Tabs
Rating:
0/5 (0 votes)
Hard to play? Try these video lessons and learn fast.
                Intro:  "Clean"

E |----------------|----------------|----------------|----------------|
H |*---------------|----------------|----------------|---------------*|
G |----------------|----------------|----------------|----------------|
D |---------2-0----|--------0-------|------2-0-------|----0-----------|
A |*---0--------3--|----2-3---3-0---|----0-----3-----|------3-2-0----*|
E |----------------|----------------|----------------|----------------|


Verse:
 
E |----------------|----------------|----------------|----------------|
H |*---------------|----------------|----------------|---------------*|
G |----------------|----------------|----------------|----------------|
D |---------2-0----|--------0-------|------2-0-------|----0-----------|
A |*---0--------3--|----2-3---3-0---|----0-----3-----|------3-2-0----*|
E |----------------|----------------|----------------|----------------|
  "Du bezahlst für ihren Segen..."

Vor dem Pre-Chorus folgendes statt dem letzten Takt spielen : D C B A


Pre-Chorus: "Verzerrt"
       A               C                 B C D C         A
E |----------------|----------------|----------------|----------------|
H |----------------|----------------|----------------|----------------|
G |----2---****----|---5-5--****----|----4-5-7-5-----|---2------------|
D |----2---****----|---5-5--****----|----4-5-7-5-----|---2------------|
A |----0---****----|---3-3--****----|----2-3-5-3-----|---0------------|
E |----------------|----------------|----------------|----------------|


       A               C                 D C B           A
E |----------------|----------------|----------------|----------------|
H |----------------|----------------|----------------|----------------|
G |----2---****----|---5-5--****----|----7-5-4-------|---2------------|
D |----2---****----|---5-5--****----|----7-5-4-------|---2------------|
A |----0---****----|---3-3--****----|----5-3-2-------|---0------------|
E |----------------|----------------|----------------|----------------|


Chorus:


E |----------------|---------------|-------------|----------------|
H |----------------|---------------|-------------|----------------|
G |----2-----------|---5-----------|----7--------|----------------|
D |----2-----------|---5-----------|----7--------|-------3--------|
A |----0-----------|---3-----------|----5--------|-------3--------|
E |----------------|---------------|-------------|-------1--------|
            

comments powered by Disqus
↑ Back to top | BöHse Onkelz Tabs for Kirche. Lyrics for acoustic guitar and electric guitar. Tablatures and chords are parodies/interpretations of the original songs. You may use it for private study, scholarship, research or language learning purposes only