>
 >
Nenn' Mich Wie Du Willst

Nenn' Mich Wie Du Willst Guitar Tabs

BöHse Onkelz - Nenn' Mich Wie Du Willst chords, tabs, tablatures, lyrics

Guitar lessons | Add/correct | Request | Top 50 tabs Artists:  A B C D E F G H I J K L M N O P Q R S T U V W X Y Z 0-9

Nenn' Mich Wie Du Willst Guitar Tabs – BöHse Onkelz

CD, Sheet music, Poster

Do you like Nenn' Mich Wie Du Willst? Share with your friends now
Tabs
INTRO UND VERSE:
e ---------------------------------------------------
B ---------------------------------------------------
G ---------------------------------------------------
D -------------------------------5--7--5--2----------
A ------12-----13-----12---13----5--7--5--2----------
E --0-0----0-0----0-0----0-------3--5--3--0----------
    p.m.   ...    ...    .


RIFF 1
e ---------------------------------------------------
B ---------------------------------------------------
G --5-------(5)---------4----------------------------
D --5-------(5)---------4----------------------------
A --3-------(5)---------2----------------------------
E ----------------------------3-0-3-0----------------





CHORUS:              Gitarre 1
e ---------------------------------------------------
B ---------------------------------------------------
G --6------------------------------------------------
D --6-----------6-----------7-----------4------------
A --4-----------6-----------7-----------4------------
E --------------4-----------5-----------2------------

                     Gitarre 2
e ---------------------------------------------------
B ---------------------------------------5----4------
G --13-13-13-13-13-13-13-13-13-13-13-13--6--6-6------
D --11-11-11-11-11-11-11-11-11-11-11-11--------------
A ---------------------------------------------------
E ---------------------------------------------------
    p.m................................











SOLO:
e ---------9-9-----9-9-----9-------------------------
B ---------9-9-----9-9-----9--11b--11--9------9\-----
G -------------11b-----11b----11b--11--9------9\-----
D ----------------------------------------11---------
A ---------------------------------------------------
E -19/----------------------------------------------


e --10-10-----10-----10-------5---5------------------
B --10-10-----10-----10-------5---5-7b--7---5~-------
G --------12b----12b----------------7b--7---5~-------
D ---------------------------------------------------
A ---------------------------------------------------
E ---------------------------------------------------


e --9-9-----9------9--9------------------------------
B --9-9-----9------9--9---12b--12--9-----------------
G ------11b----11b--------------------11--9~---------
D ---------------------------------------------------
A ---------------------------------------------------
E ---------------------------------------------------


e --10-10-------------------5-5----------------------
B --10-10--12b--12--10------5-5--7b--7--5------------
G ---------12b--12--10-----------7b--7--5------------
D ---------------------------------------------------
A ---------------------------------------------------
E ---------------------------------------------------


e ---------------------------------------------------
B ---------------------------------------------------
G -----------------9-9----11-11--9~------------------
D ------------9-11-----11------------11--9----9------
A -------9-11------------------------------11---11-9-
E --9-12---------------------------------------------


e -----------------9-9------9-----9--9---------9-----
B -----------------9-9-11b--9-----9--9--12--12-9-----
G ---------------------11b----11b-------11b-11---11-9
D --------------9------------------------------------
A --7---7-9-/11--------------------------------------
E ----9----------------------------------------------

e --10-10--------------5---5-------------------------
B --10-10--------------5---5-7b--7--5----15b----(15b)
G ---------12b--12b----------7b--7--5----------------
D ---------------------------------------------------
A ---------------------------------------------------
E ---------------------------------------------------


VERSE  7x            VERSE  7x
RIFF 1               RIFF 1 
VERSE  5x            VERSE  5x
RIFF 1               RIFF 1
VERSE  1x            VERSE  1x
CHORUS 2x            CHORUS 4x
VERSE  7x            SOLO 2 
RIFF 1
VERSE  5x
RIFF 1
VERSE  1x
CHORUS 2x
SOLO 1

                                                         
 
SOLO 2:
e ---------------------------------------------------
B ---------------------------------------------------
G -----------------9-11--11-11--9-9--8-8--9--9p11-11-
D ------------9-11-----------------------------------
A -------9-11----------------------------------------
E --9-12---------------------------------------------

e --------------------------------------9---12p11p9--
B -----------------------12--12-9-12b----------------
G --9-9--8-8--9---9-11b------------------------------
D ---------------------------------------------------
A ---------------------------------------------------
E ---------------------------------------------------

e -----------------------------------------------------
B 12p10p9-12p10p9--12b--12--9----9--------------------
G -----------------------------11---11br-p9--11-9----9-
D ------------------------------------------------11---
A -----------------------------------------------------
E -----------------------------------------------------

e -----------14-14--12-12--11-11--12--12p14-14-12-12-
B --12-14-12-----------------------------------------
G ---------------------------------------------------
D ---------------------------------------------------
A ---------------------------------------------------
E ---------------------------------------------------
e --11-11--12--12------------------------------------
B -------------12b--12-9----9------------------------
G -----------------------11---9h11p9--11-9----9------
D -----------------------------------------11--------
A ---------------------------------------------------
E ---------------------------------------------------

e ---------------------------------------------------
B ---------------------------------------------------
G -----------------------------------------------9~--
D --11--9------9--------------------------9--11------
A ---------11-----11--9--7------7--9--11-------------
E ---------------------------9-----------------------

e --------------------9-9----------9--12p11p9----------
B --------------------9-9-12b-9-12-------------12p10p9-
G -------------9--12b----------------------------------
D --11--9--11------------------------------------------
A -----------------------------------------------------
E -----------------------------------------------------

e ---------------------------------------------------
B 12p10p912p10p9--12b-12-9---------------12--12----
G ---------------------------11-9----9-11b-----11b---
D --------------------------------11-----------------
A ---------------------------------------------------
E ---------------------------------------------------

                 
e ---------------------------------------------------
B -----------9---------------------------------------
G 11p9--11-----9b-----------------------------------
D --------------------11~~~--------------------------
A ---------------------------------------------------
E ---------------------------------------------------





Comments


Popular BöHse Onkelz tabs & chords
1000 Fragen Tabs
Auf Gute Freunde 1 Tabs
Ausrufezeichen Tabs
Das Wunder Der PersöNlichkeit Tabs
Es 1 Tabs
Keine Amnestie FüR Mtv Tabs
Leiden Tabs
Matapolo Tabs
Nekrophil Tabs
Wir Ham' Noch Lange Nicht Genug Tabs


Song lyrics



↑ Back to top | Tablatures and chords are parodies/interpretations of the original songs. You may use it for private study, scholarship, research or language learning purposes only
© 2014 AZChords.com Contact us | Privacy policy | DMCA | Add/correct tabs | Request tabs | Top 50 tabs