» » »

Deutschland Tabs (ver.1)

Artists:  A B C D E F G H I J K L M N O P Q R S T U V W X Y Z # 

Deutschland Tabs (ver.1)

BöHse Onkelz
Rating:
0/5 (0 votes)

Hard to play? Try these video lessons and learn fast.
                INTRO:
e ---------------------------------------------------
B --0--0--1--1--3--3--1--1--0--0--1--1--3--3--1--1---
G --2--2--2--2--2--2--2--2--2--2--2--2--2--2--2--2---
D ---------------------------------------------------
A ---------------------------------------------------
E ---------------------------------------------------
  p.m..............................................

e ---------------------------------------------------
B --0--0--1--1--3--3--1--1--0--0--1--1--3--3--1--0---
G --0--0--0--0--0--0--0--0--0--0--0--0--0--0--0--0---
D ---------------------------------------------------
A ---------------------------------------------------
E ---------------------------------------------------
  p.m..............................................


Bis jetzt habe ich nur mal das 100%ig richtige Intro Riff

getabbed, da ich bis jetzt nur falsche Versionen gesehen

habe. Der Rest kommt vielleicht noch.



(GEGEN NAZIS)!!!
            
Hard to play? Try these video lessons and learn fast. | Correct




comments powered by Disqus
↑ Back to top | Tablatures and chords are parodies/interpretations of the original songs. You may use it for private study, scholarship, research or language learning purposes only