» » »

A Skylit Drive, Knights Of The Round Tabs (ver.2)

Artists:  A B C D E F G H I J K L M N O P Q R S T U V W X Y Z # 

Knights Of The Round Tabs (ver.2)

A Skylit Drive Tabs
 Rating:
4.3/5 (6 votes)
Knights Of The Round lessons Tabs too difficult? Try these video lessons and learn fast
1
                
this is my my 5th tab
comment nyo na lang ako 
kung anu-ano ang iba kong
ginawa....

add nyo ako...


100% tama yan
walang mali yan 
mamatay na kayo
hahaha

;)

============================================================================
============================================================================
 
 Intro 
 1st guitar 
Breathe......just breathe
|-------------------------------------------------------------|
|-------------------------------------------------------------|
|-------14/12--9/10-1414---------14---16----------------------|
|-8-7-0--x-x---x-x---x-x--7-------x(8)-x(8)-------------------|
|-8-7-0-12/10--7/8--1212----3-5--12---14----------------------|
|-8-7-0-------------------------------------------------------|

 2nd guitar 
Breathe......just breathe
|-------------------------------------------------------------|
|-------------------------------------------------------------|
|-------10/9--5/7--1010--10-9-10--10--------------------------|
|-8-7-0--x-x--x-x---x-x---x-x-x---x-(8)-----------------------|
|-8-7-0--8/7--3/5---8-8---8-7-8---8---------------------------|
|-8-7-0-------------------------------------------------------|

 1st guitar 
what are you waiting for.......
|-------------------------------------------------------------|
|-------------------------------------------------------------|
|-------14/12-------------------------------------------------|
|-8-7-0--x-x---000-000----------------------------------------|
|-8-7-0-12/10--000-000----------------------------------------|
|-8-7-0--------000-000----------------------------------------|
 
 2nd guitar 
what are you waiting for.......
|-------------------------------------------------------------|
|-------------------------------------------------------------|
|-------10-9--------------------------------------------------|
|-8-7-0--x-x--000-000-----------------------------------------|
|-8-7-0--8/7--000-000-----------------------------------------|
|-8-7-0-------000-000-----------------------------------------|

=============================================================================
 1st guitar 
Ahh!!!!!!!!!
|-------------------------------------------------------------|
|-------------------------------------------------------------|
|-------------------------------------------------------------|
|-0~--0~--0000000--0~--0~-------------------------------------|
|-0~--0~--0000000--0~--0~-------------------------------------|
|-0~--0~--0000000--0~--0~-------------------------------------|

 2nd guitar 
Ahh!!!!!!!!!
|-------------------------------------------------------------|
|-------------------------------------------------------------|
|-0~--0~--0000000--0~--0~-------------------------------------|
|-0~--0~--0000000--0~--0~-------------------------------------|
|-0~--0~--0000000--0~--0~-------------------------------------|


1st guitar
verse 
Incision force blood runs
|---------10--------------------------------------------------|
|-13---------13----13-----------------------------------------|
|----10-10------10----10--------------------------------------|7x
|-------------------------------------------------------------|
|-------------------------------------------------------------|
|-------------------------------------------------------------|

 2nd guitar 
Incision force blood runs
|-13----12----------------------------------------------------|
|---10----10--13----------------------------------------------|
|-----10----10--10--------------------------------------------|7x
|-------------------------------------------------------------|
|-------------------------------------------------------------|
|-------------------------------------------------------------|

Chorus
1st guitar 
We are the knights.............
|-------------------------------------------------------------|
|-10-----13----10----8-----10---------------------------------|
|-x-(16)-x-(4)-x-(4)-x-(4)-x-(8)------------------------------|
|-7------10----7-----5-----7----------------------------------|
|-------------------------------------------------------------|
|-------------------------------------------------------------|

 2nd guitar 
We are the knights.............
|-------------------------------------------------------------|
|-------------------------------------------------------------|
|-----------10--------------10--------------------------------|
|-00000-00--x-(8)-33333-33--x-(8)-----------------------------|
|-00000-00--8-----33333-33--8---------------------------------|
|-00000-00--------33333-33------------------------------------|

1st guitar
i don`t think you know...........
|-------------------------------------------------------------|
|-6/88/101010------6/8888---6/88/101010---------------10^-----|
|-x-xx-x-x-x--(2x)-x-xxxx---x-xx-x-x-x-------7777-9999--------|
|-3/55/7-7-7-------3/5555---3/55/7-7-7---7777-----------------|
|-------------------------------------------------------------|
|-------------------------------------------------------------|

 2nd guitar
i don`t think you know
|-------------------------------------------------------------|
|---------------------------------------------------------10^-|
|-14-1212\101010-----7/99/101010-14/1212-10-5-----------------|
|-x---x-x-x-x-x-(2x)-x-xx-x-x-x---x-x-x--x--x----------8888---|
|-12/1010\8-8-8------5/77/8-8-8--12/1010/8--3-5555-7777-------|
|------------------------------------------------------------|

1st guitar
solo
|-------------17----15-----------------------17---------------|
|-18--18--18----14----14--18-----18--18--18----14-18-14-------|
|---14--14--14----14----14--14-----14--14--14-----------------|2x
|-------------------------------------------------------------|
|-------------------------------------------------------------|
|-------------------------------------------------------------|

 2nd guitar     
for you.................
|-------------------------------------------------------------|
|-------------------------------------------------------------|
|-------------------------------------------------------------|
|-00-00-00------/8-3-0-3-0--00-00-00--00-00-0-0~--------------|
|-00-00-00-(2x)-/8-3-0-3-0--00-00-00--00-00-0-0~--------------|
|-00-00-00------/8-3-0-3-0--00-00-00--00-00-0-0~--------------|

back to 
intro
verse
chorus
the bridge

1st guitar 
We subside........
|-------------------------------------------------------------|
|----------6/88/101010\5/6-----------5/66/888/10/11-----------|
|----------x-xx-x-x-x--x-x-----------x-xx-xxx--x-x------------|
|-00-00-00-3/55/7-7-7-\2/3--33-33-33-2/33/555/7/8-------------|
|-00-00-00------------------33-33-33--------------------------|
|-00-00-00------------------33-33-33--------------------------|

 2nd guitar 
We subside........
|-------------------------------------------------------------|
|-------------------------------------------------------------|
|----------14/1212-1010-9-10----------5-77-91010/1212---------|
|-00-00-00--x-x-x--xx---x-x--33-33-33-x-xx-x-x-x--x-x---------|
|-00-00-00-12/1010/8-8--7/8--33-33-33-3/55/7-8-8/1010---------|
|-00-00-00-------------------33-33-33-------------------------|

 1st guitar 
you burn so bright......
|-------------------------------------------------------------|
|----------------------------------------10^------------------|
|-------------------------------7777-9999---------------------|
|-88-88-88--1010-1010-1010--7777------------------------------|
|-88-88-88--1010-1010-1010------------------------------------|
|-88-88-88--1010-1010-1010------------------------------------|

 2nd guitar 
you burn so bright......
|-------------------------------------------------------------|
|-----------------------------------------10^-----------------|
|-------------------------------------------------------------|
|-88-88-88--1010-1010-1010------------------------------------|
|-88-88-88--1010-1010-1010--5555-7777-8888--------------------|
|-88-88-88--1010-1010-1010------------------------------------|

1st guitar
|-------------------------------------------------------------|
|----------6/88/101010\5/6-----------5/66/888/10/11-----------|
|----------x-xx-x-x-x--x-x-----------x-xx-xxx--x-x------------|
|-00-00-00-3/55/7-7-7-\2/3--33-33-33-2/33/555/7/8-------------|
|-00-00-00------------------33-33-33--------------------------|
|-00-00-00------------------33-33-33--------------------------|

 2nd guitar
|-------------------------------------------------------------|
|-------------------------------------------------------------|
|----------14/1212-1010-9-10----------5-77-91010/1212---------|
|-00-00-00--x-x-x--xx---x-x--33-33-33-x-xx-x-x-x--x-x---------|
|-00-00-00-12/1010/8-8--7/8--33-33-33-3/55/7-8-8/1010---------|
|-00-00-00-------------------33-33-33-------------------------|

1st guitar
|-------------------------------------------------------------|
|-------------------------------------------------------------|
|-------------------------------------------------------------|
|-88-88-88--1010-1010-1010------------------------------------|
|-88-88-88--1010-1010-1010------------------------------------|
|-88-88-88--1010-1010-1010------------------------------------|

 2nd guitar
|-------------------------------------------------------------|
|-------------------------------------------------------------|
|-------------------------------------------------------------|
|-88-88-88--1010-1010-1010------------------------------------|
|-88-88-88--1010-1010-1010------------------------------------|
|-88-88-88--1010-1010-1010------------------------------------|

1st guitar
|-------------------------------------------------------------|
|-------------------------------------------------------------|
|-------14/12--9/10-------------------------------------------|
|-8-7-0--x-x---x-x--------------------------------------------|
|-8-7-0-12/10--7/8--------------------------------------------|
|-8-7-0-------------------------------------------------------|

 2nd guitar
|-------------------------------------------------------------|
|-------------------------------------------------------------|
|-------10/9--5/7---------------------------------------------|
|-8-7-0--x-x--x-x---------------------------------------------|
|-8-7-0--8/7--3/5---------------------------------------------|
|-8-7-0-------------------------------------------------------|


end chords..........
both guitars
|-------------------------------------------------------------|
|-------------------------------------------------------------|
|-------------------------------------------------------------|
|--0~---------------------------------------------------------|
|--0~---------------------------------------------------------|
|--0~---------------------------------------------------------|


add nyo ko huh?

gudluck
;)
            
Submit corrections

comments powered by Disqus
↑ Back to top | A Skylit Drive Tabs for Knights Of The Round. Lyrics for acoustic guitar and electric guitar. 1 Tablatures and chords are parodies/interpretations of the original songs. You may use it for private study, scholarship, research or language learning purposes only