» » »

A Skylit Drive, Knights Of The Round Bass tabs (ver.1)

Artists:  A B C D E F G H I J K L M N O P Q R S T U V W X Y Z # 

Knights Of The Round Bass tabs (ver.1)

A Skylit Drive Tabs
 Rating:
4.2/5 (5 votes)
Knights Of The Round lessons Tabs too difficult? Try these video lessons and learn fast
1
                ++++++++++++++++++++++++++++++++++++++++
| A Skylit Drive- Knights Of The Round |
++++++++++++++++++++++++++++++++++++++++


"Follow the lights, they're burning so bright..."

Tuning: Drop D (DADG)


Intro
"Breathe..."
1.
G|------------------------------------------------------------------------|
D|----------3-2-0-2---------------------------------------3-2-0-2---------|
A|-1~-0~------------------1~-0~----1~-----3~-----1~-0~--------------------|
D|-------5~---------0x-0x-------5~---------------------5~---------000-000-|

2.
G|--------------------------------------------------------------------------|
D|-------------------------------------------3333-2222-3333------3333-2222x-|
A|--------------------------------------------------------------------------|
D|-0~----------------0~----------------0~-------------------0000------------|

Verse
"Incisions forced; blood runs..."
3.
G|-----------------------------------------------------------------|
D|-0000x-00x----222-3333x-33x--------------------------------------|
A|-------------------------------000-1111x-11x----000-1111x-11x----|
D|-----------------------------------------------------------------|

Chorus
"We are the knights..."
4.
G|-----------------------------------------------------------------------|
D|-----------------------------------------------------------------------|
A|-------------------------------------11111-11-1111111-33333-33x--------|--x2
D|-00000x-00~--------33333x-33~------------------------------------------|

Outro
"For you..."
5.
G|-------------------------------------------------------------------------------|
D|-------------------------------------------------------------------------------|
A|-------------------------------1~----------------------------------------------|
D|-00x-00-0-0x--------00x-00-0-0-----------00x-00-0-0x--------00x-00-0-0x-0~-----|

"Breathe..."
6.
G|------------------------------------------------------------------------|
D|----------3-2-0-2---------------------------------------3-2-0-2---------|
A|-1~-0~------------------1~-0~----1~-----3~-----1~-0~--------------------|
D|-------5~---------0x-0x-------5~---------------------5~---------000-000-|

7.
G|--------------------------------------------------------------------------|
D|-------------------------------------------3333-2222-3333------3333-2222x-|
A|--------------------------------------------------------------------------|
D|-0~----------------0~----------------0~-------------------0000------------|

Verse
"Focus on all your instincts..."
8.
G|-----------------------------------------------------------------|
D|-0000x-00x----222-3333x-33x--------------------------------------|
A|-------------------------------000-1111x-11x----000-1111x-11x----|
D|-----------------------------------------------------------------|

Chorus
"We are the knights..."
9.
G|-----------------------------------------------------------------------|
D|-----------------------------------------------------------------------|
A|-------------------------------------11111-11-1111111-33333-33x--------|--x2
D|-00000x-00~--------33333x-33~------------------------------------------|

"We subside..."
10.
G|-----------------------------------------------------------------------------|
D|-----------------------------------------------------------------------------|
A|---------------------------------------11x-11-1-1x--------33x-33-3-3x--------|--x2
D|-00x-00-0-0x--------33x-33-3-3x----------------------------------------------|

Outro
11.
G|------------------------------------|
D|----------3-2-0-2-------------------|
A|-1~-0~------------------------------|
D|-------5~---------0~----------------|


Lyrics:


Breathe
Just breathe
What are you waiting for?

Incisions forced; blood runs
We're forced to believe it
Don't you see it?
You're being overthrown by...

We are the knights
Your nightmare arrives
I don't think you know I don't think you know
What has come for you
Follow the lights
They're burning so bright
I don't think you know I don't think you know
What has come for you

Won't you walk through the door

Focus on all your instincts
It brings you deeper to the meaning of what we've become
Show your heart of stone

We subside
Lost in your eyes
You burn so bright



+++++++++++++++++++++++++++++++++
| RaiLeff                       |
+++++++++++++++++++++++++++++++++
            
Submit corrections

comments powered by Disqus
↑ Back to top | A Skylit Drive Bass for Knights Of The Round. Lyrics for acoustic guitar and electric guitar. 1 Tablatures and chords are parodies/interpretations of the original songs. You may use it for private study, scholarship, research or language learning purposes only