>
 >
Knights Of The Round 2

Knights Of The Round 2 Guitar Tabs

A Skylit Drive - Knights Of The Round 2 chords, tabs, tablatures, lyrics

Guitar lessons | Add/correct | Request | Top 50 tabs Artists:  A B C D E F G H I J K L M N O P Q R S T U V W X Y Z 0-9

Knights Of The Round 2 Guitar Tabs – A Skylit Drive

CD, Sheet music, Poster

Do you like Knights Of The Round 2? Share with your friends now
Bass TabsChordsTabsTabs v2Tabs v3Ukulele
            Knights of the Round - A Skylit Drive
	    note: sorry for the fact that it's quite confusing, as it was exported from .gp5 
Pro 5) format. If this absolutely doesn't work for you, try my .gp5 tab here:

---------------------------------------------------------------------------

Guitar 1
----------


     E.  E.  E  E   E   E   E     E  E  E  E   E.   E.   E
E||----------------------------|----------------------------|
B||----------------------------|----------------------------|
G||----------------------------|----------------------------|
D||--8---7---0-----------------|--0-----0-------------------|
A||--8---7---0--8p--7----------|--0-----0-----12------------|
D||--8---7---0---------10p--7--|--0-----0----------10---12--|


   E.   E.   E   E   E      E.   E.   E   E   E   E   E
------------------------|--------------------------------|
------------------------|--------------------------------|
--14---14---14--14--14--|--14---14---14--17--17--17--17--|
---x----x----x---x---x--|---x----x----x---x---x---x---x--|
--12---12---12--12--12--|--12---12---12--15--15--15--15--|
------------------------|--------------------------------|


  E.  E.  E  E   E   E   E     S S S S S S S S    W
----------------------------|------------------|-------------------|
----------------------------|------------------|-------------------|
----------------------------|------------------|-------------------|
--8---7---0-----------------|--x-x-x---x-x-x---|--0----------------|
--8---7---0--8p--7----------|--x-x-x---x-x-x---|--0----------------|
--8---7---0---------10p--7--|--x-x-x---x-x-x---|--0----------------|


                                          PM   PM   PM   PM   PM   PM
                                          |----3----|    |----3----|
  W                   W                   Q    Q    Q    Q    Q    Q
-------------------|-------------------|--------------------------------|
-------------------|-------------------|--------------------------------|
-------------------|-------------------|--------------------------------|
--L----------------|--0----------------|--0----0----0----0----0----0----|
--L----------------|--0----------------|--0----0----0----0----0----0----|
--L----------------|--0----------------|--0----0----0----0----0----0----|


  W                   W                   W
-------------------|-------------------|-------------------|
-------------------|-------------------|-------------------|
-------------------|-------------------|-------------------|
--0----------------|--L----------------|--0----------------|
--0----------------|--L----------------|--0----------------|
--0----------------|--L----------------|--0----------------|


                        PM  PM  PM  PM  PM  PM  PM  PM
  H        H            E   E   E   E   E   E   E   E
--------------------|--13----------12------------------|
--------------------|------10----------10------13------|
--------------------|----------10----------10------10--|
--L-----------------|----------------------------------|
--L-----------------|----------------------------------|
--L-----------------|----------------------------------|


   PM  PM  PM  PM  PM  PM  PM  PM     PM  PM  PM  PM  PM  PM  PM  PM
   E   E   E   E   E   E   E   E      E   E   E   E   E   E   E   E
--13----------12------------------|--13----------12------------------|
------10----------10------13------|------10----------10------13------|
----------10----------10------10--|----------10----------10------10--|
----------------------------------|----------------------------------|
----------------------------------|----------------------------------|
----------------------------------|----------------------------------|


   PM  PM  PM  PM  PM  PM  PM  PM     PM  PM  PM  PM  PM  PM  PM  PM
   E   E   E   E   E   E   E   E      E   E   E   E   E   E   E   E
--13----------12------------------|--13----------12------------------|
------10----------10------13------|------10----------10------13------|
----------10----------10------10--|----------10----------10------10--|
----------------------------------|----------------------------------|
----------------------------------|----------------------------------|
----------------------------------|----------------------------------|


   PM  PM  PM  PM  PM  PM  PM  PM     PM  PM  PM  PM  PM  PM  PM  PM
   E   E   E   E   E   E   E   E      E   E   E   E   E   E   E   E
--13----------12------------------|--13----------12------------------|
------10----------10------13------|------10----------10------13------|
----------10----------10------10--|----------10----------10------10--|
----------------------------------|----------------------------------|
----------------------------------|----------------------------------|
----------------------------------|----------------------------------|


   E   E   E   E   E   E   E   E      E   E   E   E   E   E   E   E
--12--13--12--13--12--13--12--13--|----------------------------------|
--10--10--10--10--10--10--10--10--|----------------------------------|
--10--10--10--10--10--10--10--10--|--14--14--14--14--14--14--14--14--|
----------------------------------|---x---x---x---x---x---x---x---x--|
----------------------------------|--12--12--12--12--12--12--12--12--|
----------------------------------|----------------------------------|


   E   E   E   E   E   E   E   E      E   E   E   E   E   E   E   E
----------------------------------|----------------------------------|
----------------------------------|----------------------------------|
--14--14--14--14--14--14--14--14--|--17--17--17--14--14--14--12--12--|
---x---x---x---x---x---x---x---x--|---x---x---x---x---x---x---x---x--|
--12--12--12--12--12--12--12--12--|--15--15--15--12--12--12--10--10--|
----------------------------------|----------------------------------|


   E   E   E   E   E   E   E   E      E    E   E    E   E  E   E    E
----------------------------------|------------------------------------|
----------------------------------|------------------------------------|
--12--14--14--14--14--14--14--14--|--10S--12--12S--14--14-----10S--12--|
---x---x---x---x---x---x---x---x--|---x----x---x----x---x------x----x--|
--10--12--12--12--12--12--12--12--|---8S--10--10S--12--12------8S--10--|
----------------------------------|------------------------------------|


   E    E   E  E   E    E   E    E      E    E   E    E   E  E  Q
------------------------------------|--------------------------------|
------------------------------------|--------------------------------|
--12S--14--14-----10S--12--12S--14--|--14S--12--12S--14--14-----7----|
---x----x---x------x----x---x----x--|---x----x---x----x---x-----x----|
--10S--12--12------8S--10--10S--12--|--12S--10--10S--12--12-----5----|
------------------------------------|--------------------------------|


    mute and gradually slide from 5-9. let 9 ring out.
    NH                                                 NH  NH  NH  NH  NH  NH  N
    S                                                  S   S   S   S   S   S   S
---------------------------------------------------------------------------------|
---------------------------------------------------------------------------------|
---------------------------------------------------------------------------------|
----5------------------------------------------------<>5-<>5-<>5-<>7-<>7-<>7-<>7-|
--<>5------------------------------------------------<>5-<>5-<>5-<>7-<>7-<>7-<>7-|
--<>5------------------------------------------------<>5-<>5-<>5-<>7-<>7-<>7-<>7-|


   E   E   E   E   E   E   E   E      E   E   E   E   E   E   E   E
----------------------------------|----------------------------------|
----------------------------------|----------------------------------|
--14--14--14--14--14--14--14--14--|--14--14--14--14--14--14--14--14--|
---x---x---x---x---x---x---x---x--|---x---x---x---x---x---x---x---x--|
--12--12--12--12--12--12--12--12--|--12--12--12--12--12--12--12--12--|
----------------------------------|----------------------------------|


   E   E   E   E   E   E   E   E      E   E   E   E   E   E   E   E
----------------------------------|----------------------------------|
----------------------------------|----------------------------------|
--17--17--17--14--14--14--12--12--|--12--14--14--14--14--14--14--14--|
---x---x---x---x---x---x---x---x--|---x---x---x---x---x---x---x---x--|
--15--15--15--12--12--12--10--10--|--10--12--12--12--12--12--12--12--|
----------------------------------|----------------------------------|


   E    E   E    E   E  E   E    E      E    E   E  E   E    E   E    E
------------------------------------|------------------------------------|
------------------------------------|------------------------------------|
--10S--12--12S--14--14-----10S--12--|--12S--14--14-----10S--12--12S--14--|
---x----x---x----x---x------x----x--|---x----x---x------x----x---x----x--|
---8S--10--10S--12--12------8S--10--|--10S--12--12------8S--10--10S--12--|
------------------------------------|------------------------------------|


   E    E   E    E   E  E  Q
--------------------------------|
--------------------------------|
--14S--12--12S--14--14-----7----|
---x----x---x----x---x-----x----|
--12S--10--10S--12--12-----5----|
--------------------------------|


    mute and gradually slide from 5-9. let 9 ring out.
    NH                                                 NH  NH  NH  NH  NH  NH  N
    S                                                  S   S   S   S   S   S   S
---------------------------------------------------------------------------------|
---------------------------------------------------------------------------------|
---------------------------------------------------------------------------------|
----5------------------------------------------------<>5-<>5-<>5-<>7-<>7-<>7-<>7-|
--<>5------------------------------------------------<>5-<>5-<>5-<>7-<>7-<>7-<>7-|
--<>5------------------------------------------------<>5-<>5-<>5-<>7-<>7-<>7-<>7-|


   E    E   E    E   E    E   E   E      E   E   E    E   E    E   E   E
-----------------------------18------|--17------17p--15--17p--15------15--|
--18p--15--18p--17--15h--18------18--|------15--------------------18------|
-------------------------------------|------------------------------------|
-------------------------------------|------------------------------------|
-------------------------------------|------------------------------------|
-------------------------------------|------------------------------------|


   E    E   E    E   E    E   E   E      E   E   E   H        E
-----------------------------18------|--17------17---------------|
--18p--15--18p--17--15h--18------18--|------15------14-----------|
-------------------------------------|---------------------------|
-------------------------------------|---------------------------|
-------------------------------------|---------------------------|
-------------------------------------|---------------------------|


   E    E   E    E   E    E   E   E      E   E   E    E   E    E   E   E
-----------------------------18------|--17------17p--15--17p--15------15--|
--18p--15--18p--17--15h--18------18--|------15--------------------18------|
-------------------------------------|------------------------------------|
-------------------------------------|------------------------------------|
-------------------------------------|------------------------------------|
-------------------------------------|------------------------------------|


   E    E   E    E   E    E   E   E      E   E   E   H        E
-----------------------------18------|--17------17---------------|
--18p--15--18p--17--15h--18------18--|------15------14-----------|
-------------------------------------|---------------------------|
-------------------------------------|---------------------------|
-------------------------------------|---------------------------|
-------------------------------------|---------------------------|


  E.  E.  E  E   E   E   E     E  E  E  E   E.   E.   E
----------------------------|----------------------------|
----------------------------|----------------------------|
----------------------------|----------------------------|
--8---7---0-----------------|--0-----0-------------------|
--8---7---0--8p--7----------|--0-----0-----12------------|
--8---7---0---------10p--7--|--0-----0----------10---12--|


   E.   E.   E   E   E      E.   E.   E   E   E   E   E
------------------------|--------------------------------|
------------------------|--------------------------------|
--14---14---14--14--14--|--14---14---14--17--17--17--17--|
---x----x----x---x---x--|---x----x----x---x---x---x---x--|
--12---12---12--12--12--|--12---12---12--15--15--15--15--|
------------------------|--------------------------------|


  E.  E.  E  E   E   E   E     S S S S S S S S    W
----------------------------|------------------|-------------------|
----------------------------|------------------|-------------------|
----------------------------|------------------|-------------------|
--8---7---0-----------------|--x-x-x---x-x-x---|--0----------------|
--8---7---0--8p--7----------|--x-x-x---x-x-x---|--0----------------|
--8---7---0---------10p--7--|--x-x-x---x-x-x---|--0----------------|


                                          PM   PM   PM   PM   PM   PM
                                          |----3----|    |----3----|
  W                   W                   Q    Q    Q    Q    Q    Q
-------------------|-------------------|--------------------------------|
-------------------|-------------------|--------------------------------|
-------------------|-------------------|--------------------------------|
--L----------------|--0----------------|--0----0----0----0----0----0----|
--L----------------|--0----------------|--0----0----0----0----0----0----|
--L----------------|--0----------------|--0----0----0----0----0----0----|


  W                   W                   W
-------------------|-------------------|-------------------|
-------------------|-------------------|-------------------|
-------------------|-------------------|-------------------|
--0----------------|--L----------------|--0----------------|
--0----------------|--L----------------|--0----------------|
--0----------------|--L----------------|--0----------------|


                        PM  PM  PM  PM  PM  PM  PM  PM
  H        H            E   E   E   E   E   E   E   E
--------------------|--13----------12------------------|
--------------------|------10----------10------13------|
--------------------|----------10----------10------10--|
--L-----------------|----------------------------------|
--L-----------------|----------------------------------|
--L-----------------|----------------------------------|


   PM  PM  PM  PM  PM  PM  PM  PM     PM  PM  PM  PM  PM  PM  PM  PM
   E   E   E   E   E   E   E   E      E   E   E   E   E   E   E   E
--13----------12------------------|--13----------12------------------|
------10----------10------13------|------10----------10------13------|
----------10----------10------10--|----------10----------10------10--|
----------------------------------|----------------------------------|
----------------------------------|----------------------------------|
----------------------------------|----------------------------------|


   PM  PM  PM  PM  PM  PM  PM  PM     PM  PM  PM  PM  PM  PM  PM  PM
   E   E   E   E   E   E   E   E      E   E   E   E   E   E   E   E
--13----------12------------------|--13----------12------------------|
------10----------10------13------|------10----------10------13------|
----------10----------10------10--|----------10----------10------10--|
----------------------------------|----------------------------------|
----------------------------------|----------------------------------|
----------------------------------|----------------------------------|


   PM  PM  PM  PM  PM  PM  PM  PM     PM  PM  PM  PM  PM  PM  PM  PM
   E   E   E   E   E   E   E   E      E   E   E   E   E   E   E   E
--13----------12------------------|--13----------12------------------|
------10----------10------13------|------10----------10------13------|
----------10----------10------10--|----------10----------10------10--|
----------------------------------|----------------------------------|
----------------------------------|----------------------------------|
----------------------------------|----------------------------------|


   E   E   E   E   E   E   E   E      E   E   E   E   E   E   E   E
--12--13--12--13--12--13--12--13--|----------------------------------|
--10--10--10--10--10--10--10--10--|----------------------------------|
--10--10--10--10--10--10--10--10--|--14--14--14--14--14--14--14--14--|
----------------------------------|---x---x---x---x---x---x---x---x--|
----------------------------------|--12--12--12--12--12--12--12--12--|
----------------------------------|----------------------------------|


   E   E   E   E   E   E   E   E      E   E   E   E   E   E   E   E
----------------------------------|----------------------------------|
----------------------------------|----------------------------------|
--14--14--14--14--14--14--14--14--|--17--17--17--14--14--14--12--12--|
---x---x---x---x---x---x---x---x--|---x---x---x---x---x---x---x---x--|
--12--12--12--12--12--12--12--12--|--15--15--15--12--12--12--10--10--|
----------------------------------|----------------------------------|


   E   E   E   E   E   E   E   E      E    E   E    E   E  E   E    E
----------------------------------|------------------------------------|
----------------------------------|------------------------------------|
--12--14--14--14--14--14--14--14--|--10S--12--12S--14--14-----10S--12--|
---x---x---x---x---x---x---x---x--|---x----x---x----x---x------x----x--|
--10--12--12--12--12--12--12--12--|---8S--10--10S--12--12------8S--10--|
----------------------------------|------------------------------------|


   E    E   E  E   E    E   E    E      E    E   E    E   E  E  Q
------------------------------------|--------------------------------|
------------------------------------|--------------------------------|
--12S--14--14-----10S--12--12S--14--|--14S--12--12S--14--14-----7----|
---x----x---x------x----x---x----x--|---x----x---x----x---x-----x----|
--10S--12--12------8S--10--10S--12--|--12S--10--10S--12--12-----5----|
------------------------------------|--------------------------------|


    mute and gradually slide from 5-9. let 9 ring out.
    NH                                                 NH  NH  NH  NH  NH  NH  N
    S                                                  S   S   S   S   S   S   S
---------------------------------------------------------------------------------|
---------------------------------------------------------------------------------|
---------------------------------------------------------------------------------|
----5------------------------------------------------<>5-<>5-<>5-<>7-<>7-<>7-<>7-|
--<>5------------------------------------------------<>5-<>5-<>5-<>7-<>7-<>7-<>7-|
--<>5------------------------------------------------<>5-<>5-<>5-<>7-<>7-<>7-<>7-|


   E   E   E   E   E   E   E   E      E   E   E   E   E   E   E   E
----------------------------------|----------------------------------|
----------------------------------|----------------------------------|
--14--14--14--14--14--14--14--14--|--14--14--14--14--14--14--14--14--|
---x---x---x---x---x---x---x---x--|---x---x---x---x---x---x---x---x--|
--12--12--12--12--12--12--12--12--|--12--12--12--12--12--12--12--12--|
----------------------------------|----------------------------------|


   E   E   E   E   E   E   E   E      E   E   E   E   E   E   E   E
----------------------------------|----------------------------------|
----------------------------------|----------------------------------|
--17--17--17--14--14--14--12--12--|--12--14--14--14--14--14--14--14--|
---x---x---x---x---x---x---x---x--|---x---x---x---x---x---x---x---x--|
--15--15--15--12--12--12--10--10--|--10--12--12--12--12--12--12--12--|
----------------------------------|----------------------------------|


   E    E   E    E   E  E   E    E      E    E   E  E   E    E   E    E
------------------------------------|------------------------------------|
------------------------------------|------------------------------------|
--10S--12--12S--14--14-----10S--12--|--12S--14--14-----10S--12--12S--14--|
---x----x---x----x---x------x----x--|---x----x---x------x----x---x----x--|
---8S--10--10S--12--12------8S--10--|--10S--12--12------8S--10--10S--12--|
------------------------------------|------------------------------------|


   E    E   E    E   E  E  Q
--------------------------------|
--------------------------------|
--14S--12--12S--14--14-----7----|
---x----x---x----x---x-----x----|
--12S--10--10S--12--12-----5----|
--------------------------------|


    mute and gradually slide from 5-9. let 9 ring out.
    NH                                                 NH  NH  NH  NH  NH  NH  N
    S                                                  S   S   S   S   S   S   S
---------------------------------------------------------------------------------|
---------------------------------------------------------------------------------|
---------------------------------------------------------------------------------|
----5------------------------------------------------<>5-<>5-<>5-<>7-<>7-<>7-<>7-|
--<>5------------------------------------------------<>5-<>5-<>5-<>7-<>7-<>7-<>7-|
--<>5------------------------------------------------<>5-<>5-<>5-<>7-<>7-<>7-<>7-|


           E    E   E    E   E    E   Q
-------|-----------------------------------|-----|
-------|-----------------------------------|-----|
-------|--10S--12--12S--14--14S--10--10----|-----|
-------|---x----x---x----x---x----x---x----|-----|
-------|---8S--10--10S--12--12S---8---8----|-----|
-------|-----------------------------------|-----|


  E    E   E    E   E    E   E    E
-------------------------------------|-----|-----|
-------------------------------------|-----|-----|
--9S--10--10S--12--12S--14--14S--15--|-----|-----|
--x----x---x----x---x----x---x----x--|-----|-----|
--7S---8---8S--10--10S--12--12S--13--|-----|-----|
-------------------------------------|-----|-----|


   PM PM PM      PM  PM    PM   PM
                     |-----3----|
   S  S  S S E   E   Q     Q    Q
-------------------------------------|
-------------------------------------|
-------------------------------------|
--10-10-10------10--10----10----0----|
--10-10-10------10--10----10----0----|
--10-10-10------10--10----10----0----|


    mute and gradually slide from 5-9. let 9 ring out.
    NH                                                 NH  NH  NH  NH  NH  NH  N
    S                                                  S   S   S   S   S   S   S
---------------------------------------------------------------------------------|
---------------------------------------------------------------------------------|
---------------------------------------------------------------------------------|
----5------------------------------------------------<>5-<>5-<>5-<>7-<>7-<>7-<>7-|
--<>5------------------------------------------------<>5-<>5-<>5-<>7-<>7-<>7-<>7-|
--<>5------------------------------------------------<>5-<>5-<>5-<>7-<>7-<>7-<>7-|


           E    E   E    E   E    E   Q
-------|-----------------------------------|-----|
-------|-----------------------------------|-----|
-------|--10S--12--12S--14--14S--10--10----|-----|
-------|---x----x---x----x---x----x---x----|-----|
-------|---8S--10--10S--12--12S---8---8----|-----|
-------|-----------------------------------|-----|


  E    E   E    E   E    E   E    E
-------------------------------------|-----|-----|
-------------------------------------|-----|-----|
--9S--10--10S--12--12S--14--14S--15--|-----|-----|
--x----x---x----x---x----x---x----x--|-----|-----|
--7S---8---8S--10--10S--12--12S--13--|-----|-----|
-------------------------------------|-----|-----|


   PM PM PM      PM  PM    PM   PM
                     |-----3----|
   S  S  S S E   E   Q     Q    Q       E.  E.  E  E   E   E   E
-------------------------------------|----------------------------|
-------------------------------------|----------------------------|
-------------------------------------|----------------------------|
--10-10-10------10--10----10----0----|--8---7---0-----------------|
--10-10-10------10--10----10----0----|--8---7---0--8p--7----------|
--10-10-10------10--10----10----0----|--8---7---0---------10p--7--|


  W                   W
-------------------|-------------------||
-------------------|-------------------||
-------------------|-------------------||
--0----------------|--L----------------||
--0----------------|--L----------------||
--0----------------|--L----------------||

---------------------------------------------------------------------------

Guitar 2
----------


     E.  E.  E  E   E  E   E      E  E   E  E   E.  E.   E
E||---------------------------|-----------------------------|
B||---------------------------|-----------------------------|
G||---------------------------|--10-----10-----10---9---10--|
D||--8---7---0--7p--5---------|---x------x------x---x----x--|
A||--8---7---0---------8p--5--|---8------8------8---7----8--|
D||--8---7---0----------------|-----------------------------|


   E.   E.   E   E   E      E.   E.   E   E   E   E   E
------------------------|--------------------------------|
------------------------|--------------------------------|
--10---10---10--10--10--|--10---10---10--12--12--12--12--|
---x----x----x---x---x--|---x----x----x---x---x---x---x--|
---8----8----8---8---8--|---8----8----8--10--10--10--10--|
------------------------|--------------------------------|


  E.  E.  E  E   E  E   E     S S S S S S S S    W
---------------------------|------------------|-------------------|
---------------------------|------------------|-------------------|
---------------------------|------------------|-------------------|
--8---7---0--7p--5---------|--0-0-0---0-0-0---|--0----------------|
--8---7---0---------8p--5--|--0-0-0---0-0-0---|--0----------------|
--8---7---0----------------|--0-0-0---0-0-0---|--0----------------|


                                          PM   PM   PM   PM   PM   PM
                                          |----3----|    |----3----|
  W                   W                   Q    Q    Q    Q    Q    Q
-------------------|-------------------|--------------------------------|
-------------------|-------------------|--------------------------------|
-------------------|-------------------|--------------------------------|
--L----------------|--0----------------|--0----0----0----0----0----0----|
--L----------------|--0----------------|--0----0----0----0----0----0----|
--L----------------|--0----------------|--0----0----0----0----0----0----|


  W                   W                   W
-------------------|-------------------|-------------------|
-------------------|-------------------|-------------------|
-------------------|-------------------|-------------------|
--0----------------|--L----------------|--0----------------|
--0----------------|--L----------------|--0----------------|
--0----------------|--L----------------|--0----------------|


                        PM  PM  PM  PM  PM  PM  PM  PM
  H        H            E   E   E   E   E   E   E   E
--------------------|--------------10------------------|
--------------------|--13--------------13------13------|
--------------------|------10--------------10------10--|
--L-----------------|----------12----------------------|
--L-----------------|----------------------------------|
--L-----------------|----------------------------------|


   PM  PM  PM  PM  PM  PM  PM  PM     PM  PM  PM  PM  PM  PM  PM  PM
   E   E   E   E   E   E   E   E      E   E   E   E   E   E   E   E
--------------10------------------|--------------10------------------|
--13--------------13------13------|--13--------------13------13------|
------10--------------10------10--|------10--------------10------10--|
----------12----------------------|----------12----------------------|
----------------------------------|----------------------------------|
----------------------------------|----------------------------------|


   PM  PM  PM  PM  PM  PM  PM  PM     PM  PM  PM  PM  PM  PM  PM  PM
   E   E   E   E   E   E   E   E      E   E   E   E   E   E   E   E
--------------10------------------|--------------10------------------|
--13--------------13------13------|--13--------------13------13------|
------10--------------10------10--|------10--------------10------10--|
----------12----------------------|----------12----------------------|
----------------------------------|----------------------------------|
----------------------------------|----------------------------------|


   PM  PM  PM  PM  PM  PM  PM  PM     PM  PM  PM  PM  PM  PM  PM  PM
   E   E   E   E   E   E   E   E      E   E   E   E   E   E   E   E
--------------10------------------|--------------10------------------|
--13--------------13------13------|--13--------------13------13------|
------10--------------10------10--|------10--------------10------10--|
----------12----------------------|----------12----------------------|
----------------------------------|----------------------------------|
----------------------------------|----------------------------------|


   E   E   E   E   E   E   E   E     E  E  E  E  E  E  E  E
----------------------------------|--------------------------|-----|
--13--13--13--13--13--13--13--13--|--------------------------|-----|
--10--10--10--10--10--10--10--10--|--------------------------|-----|
--12--12--12--12--12--12--12--12--|--0--0--0--0--0-----0--0--|-----|
----------------------------------|--0--0--0--0--0-----0--0--|-----|
----------------------------------|--0--0--0--0--0-----0--0--|-----|


  E  E  E  E  E  E  E  E           E  E  E  E  E  E  E  E
--------------------------|-----|--------------------------|
--------------------------|-----|--------------------------|
--------------------------|-----|--------------------------|
--3--3--3--3--3-----3--3--|-----|--8--8--8--8--8-----8--8--|
--3--3--3--3--3-----3--3--|-----|--8--8--8--8--8-----8--8--|
--3--3--3--3--3-----3--3--|-----|--8--8--8--8--8-----8--8--|


  E  E  E  E  E  E  E  E      E   E   E   E   E  E  Q
--------------------------|------------------------------|
--------------------------|------------------------------|
--------------------------|------------------------------|
--8--8--8-----8--8--8--8--|--10--10--10--10--10-----0----|
--8--8--8-----8--8--8--8--|--10--10--10--10--10-----0----|
--8--8--8-----8--8--8--8--|--10--10--10--10--10-----0----|


    mute and gradually slide from 5-9. let 9 ring out.
    NH                                                 NH  NH  NH  NH  NH  NH  N
    S                                                  S   S   S   S   S   S   S
---------------------------------------------------------------------------------|
---------------------------------------------------------------------------------|
---------------------------------------------------------------------------------|
----5------------------------------------------------<>5-<>5-<>5-<>7-<>7-<>7-<>7-|
--<>5------------------------------------------------<>5-<>5-<>5-<>7-<>7-<>7-<>7-|
--<>5------------------------------------------------<>5-<>5-<>5-<>7-<>7-<>7-<>7-|


  E  E  E  E  E  E  E  E           E  E  E  E  E  E  E  E
--------------------------|-----|--------------------------|-----|
--------------------------|-----|--------------------------|-----|
--------------------------|-----|--------------------------|-----|
--0--0--0--0--0-----0--0--|-----|--3--3--3--3--3-----3--3--|-----|
--0--0--0--0--0-----0--0--|-----|--3--3--3--3--3-----3--3--|-----|
--0--0--0--0--0-----0--0--|-----|--3--3--3--3--3-----3--3--|-----|


  E  E  E  E  E  E  E  E     E  E  E  E  E  E  E  E
--------------------------|--------------------------|
--------------------------|--------------------------|
--------------------------|--------------------------|
--8--8--8--8--8-----8--8--|--8--8--8-----8--8--8--8--|
--8--8--8--8--8-----8--8--|--8--8--8-----8--8--8--8--|
--8--8--8--8--8-----8--8--|--8--8--8-----8--8--8--8--|


   E   E   E   E   E  E  Q
------------------------------|
------------------------------|
------------------------------|
--10--10--10--10--10-----0----|
--10--10--10--10--10-----0----|
--10--10--10--10--10-----0----|


    mute and gradually slide from 5-9. let 9 ring out.
    NH                                                 NH  NH  NH  NH  NH  NH  N
    S                                                  S   S   S   S   S   S   S
---------------------------------------------------------------------------------|
---------------------------------------------------------------------------------|
---------------------------------------------------------------------------------|
----5------------------------------------------------<>5-<>5-<>5-<>7-<>7-<>7-<>7-|
--<>5------------------------------------------------<>5-<>5-<>5-<>7-<>7-<>7-<>7-|
--<>5------------------------------------------------<>5-<>5-<>5-<>7-<>7-<>7-<>7-|


  PM PM PM      PM PM   PM   PM           PM PM PM      PM PM   PM   PM
                   |----3----|                             |----3----|
  S  S  S  S E  E  Q    Q    Q            S  S  S  S E  E  Q    Q    Q
----------------------------------|----|----------------------------------|
----------------------------------|----|----------------------------------|
----------------------------------|----|----------------------------------|
--0--0--0-------0--0----0----0----|----|--0--0--0-------0--0----0----0----|
--0--0--0-------0--0----0----0----|----|--0--0--0-------0--0----0----0----|
--0--0--0-------0--0----0----0----|----|--0--0--0-------0--0----0----0----|


                       PM PM PM      PM PM   PM   PM
                                        |----3----|
  H        H           S  S  S  S E  E  Q    Q    Q
--------------------|----------------------------------|----|
--------------------|----------------------------------|----|
--------------------|----------------------------------|----|
--8--------8--------|--0--0--0-------0--0----0----0----|----|
--8--------8--------|--0--0--0-------0--0----0----0----|----|
--8--------8--------|--0--0--0-------0--0----0----0----|----|


  PM PM PM      PM PM   PM
                   |----3----|
  S  S  S  S E  E  Q    Q    Q       W
----------------------------------|-------------------|
----------------------------------|-------------------|
----------------------------------|-------------------|
--0--0--0-------0--0----0----0----|--L----------------|
--0--0--0-------0--0----0----0----|--L----------------|
--0--0--0-------0--0----0----0----|--L----------------|


  E.  E.  E  E   E  E   E      E  E   E  E   E.  E.   E
---------------------------|-----------------------------|
---------------------------|-----------------------------|
---------------------------|--10-----10-----10---9---10--|
--8---7---0--7p--5---------|---x------x------x---x----x--|
--8---7---0---------8p--5--|---8------8------8---7----8--|
--8---7---0----------------|-----------------------------|


   E.   E.   E   E   E      E.   E.   E   E   E   E   E
------------------------|--------------------------------|
------------------------|--------------------------------|
--10---10---10--10--10--|--10---10---10--12--12--12--12--|
---x----x----x---x---x--|---x----x----x---x---x---x---x--|
---8----8----8---8---8--|---8----8----8--10--10--10--10--|
------------------------|--------------------------------|


  E.  E.  E  E   E  E   E     S S S S S S S S    W
---------------------------|------------------|-------------------|
---------------------------|------------------|-------------------|
---------------------------|------------------|-------------------|
--8---7---0--7p--5---------|--0-0-0---0-0-0---|--0----------------|
--8---7---0---------8p--5--|--0-0-0---0-0-0---|--0----------------|
--8---7---0----------------|--0-0-0---0-0-0---|--0----------------|


                                          PM   PM   PM   PM   PM   PM
                                          |----3----|    |----3----|
  W                   W                   Q    Q    Q    Q    Q    Q
-------------------|-------------------|--------------------------------|
-------------------|-------------------|--------------------------------|
-------------------|-------------------|--------------------------------|
--L----------------|--0----------------|--0----0----0----0----0----0----|
--L----------------|--0----------------|--0----0----0----0----0----0----|
--L----------------|--0----------------|--0----0----0----0----0----0----|


  W                   W                   W
-------------------|-------------------|-------------------|
-------------------|-------------------|-------------------|
-------------------|-------------------|-------------------|
--0----------------|--L----------------|--0----------------|
--0----------------|--L----------------|--0----------------|
--0----------------|--L----------------|--0----------------|


                        PM  PM  PM  PM  PM  PM  PM  PM
  H        H            E   E   E   E   E   E   E   E
--------------------|--------------10------------------|
--------------------|--13--------------13------13------|
--------------------|------10--------------10------10--|
--L-----------------|----------12----------------------|
--L-----------------|----------------------------------|
--L-----------------|----------------------------------|


   PM  PM  PM  PM  PM  PM  PM  PM     PM  PM  PM  PM  PM  PM  PM  PM
   E   E   E   E   E   E   E   E      E   E   E   E   E   E   E   E
--------------10------------------|--------------10------------------|
--13--------------13------13------|--13--------------13------13------|
------10--------------10------10--|------10--------------10------10--|
----------12----------------------|----------12----------------------|
----------------------------------|----------------------------------|
----------------------------------|----------------------------------|


   PM  PM  PM  PM  PM  PM  PM  PM     PM  PM  PM  PM  PM  PM  PM  PM
   E   E   E   E   E   E   E   E      E   E   E   E   E   E   E   E
--------------10------------------|--------------10------------------|
--13--------------13------13------|--13--------------13------13------|
------10--------------10------10--|------10--------------10------10--|
----------12----------------------|----------12----------------------|
----------------------------------|----------------------------------|
----------------------------------|----------------------------------|


   PM  PM  PM  PM  PM  PM  PM  PM     PM  PM  PM  PM  PM  PM  PM  PM
   E   E   E   E   E   E   E   E      E   E   E   E   E   E   E   E
--------------10------------------|--------------10------------------|
--13--------------13------13------|--13--------------13------13------|
------10--------------10------10--|------10--------------10------10--|
----------12----------------------|----------12----------------------|
----------------------------------|----------------------------------|
----------------------------------|----------------------------------|


   E   E   E   E   E   E   E   E     E  E  E  E  E  E  E  E
----------------------------------|--------------------------|-----|
--13--13--13--13--13--13--13--13--|--------------------------|-----|
--10--10--10--10--10--10--10--10--|--------------------------|-----|
--12--12--12--12--12--12--12--12--|--0--0--0--0--0-----0--0--|-----|
----------------------------------|--0--0--0--0--0-----0--0--|-----|
----------------------------------|--0--0--0--0--0-----0--0--|-----|


  E  E  E  E  E  E  E  E           E  E  E  E  E  E  E  E
--------------------------|-----|--------------------------|
--------------------------|-----|--------------------------|
--------------------------|-----|--------------------------|
--3--3--3--3--3-----3--3--|-----|--8--8--8--8--8-----8--8--|
--3--3--3--3--3-----3--3--|-----|--8--8--8--8--8-----8--8--|
--3--3--3--3--3-----3--3--|-----|--8--8--8--8--8-----8--8--|


  E  E  E  E  E  E  E  E      E   E   E   E   E  E  Q
--------------------------|------------------------------|
--------------------------|------------------------------|
--------------------------|------------------------------|
--8--8--8-----8--8--8--8--|--10--10--10--10--10-----0----|
--8--8--8-----8--8--8--8--|--10--10--10--10--10-----0----|
--8--8--8-----8--8--8--8--|--10--10--10--10--10-----0----|


    mute and gradually slide from 5-9. let 9 ring out.
    NH                                                 NH  NH  NH  NH  NH  NH  N
    S                                                  S   S   S   S   S   S   S
---------------------------------------------------------------------------------|
---------------------------------------------------------------------------------|
---------------------------------------------------------------------------------|
----5------------------------------------------------<>5-<>5-<>5-<>7-<>7-<>7-<>7-|
--<>5------------------------------------------------<>5-<>5-<>5-<>7-<>7-<>7-<>7-|
--<>5------------------------------------------------<>5-<>5-<>5-<>7-<>7-<>7-<>7-|


  E  E  E  E  E  E  E  E           E  E  E  E  E  E  E  E
--------------------------|-----|--------------------------|-----|
--------------------------|-----|--------------------------|-----|
--------------------------|-----|--------------------------|-----|
--0--0--0--0--0-----0--0--|-----|--3--3--3--3--3-----3--3--|-----|
--0--0--0--0--0-----0--0--|-----|--3--3--3--3--3-----3--3--|-----|
--0--0--0--0--0-----0--0--|-----|--3--3--3--3--3-----3--3--|-----|


  E  E  E  E  E  E  E  E     E  E  E  E  E  E  E  E
--------------------------|--------------------------|
--------------------------|--------------------------|
--------------------------|--------------------------|
--8--8--8--8--8-----8--8--|--8--8--8-----8--8--8--8--|
--8--8--8--8--8-----8--8--|--8--8--8-----8--8--8--8--|
--8--8--8--8--8-----8--8--|--8--8--8-----8--8--8--8--|


   E   E   E   E   E  E  Q
------------------------------|
------------------------------|
------------------------------|
--10--10--10--10--10-----0----|
--10--10--10--10--10-----0----|
--10--10--10--10--10-----0----|


    mute and gradually slide from 5-9. let 9 ring out.
    NH                                                 NH  NH  NH  NH  NH  NH  N
    S                                                  S   S   S   S   S   S   S
---------------------------------------------------------------------------------|
---------------------------------------------------------------------------------|
---------------------------------------------------------------------------------|
----5------------------------------------------------<>5-<>5-<>5-<>7-<>7-<>7-<>7-|
--<>5------------------------------------------------<>5-<>5-<>5-<>7-<>7-<>7-<>7-|
--<>5------------------------------------------------<>5-<>5-<>5-<>7-<>7-<>7-<>7-|


  PM PM PM      PM PM   PM   PM              PM PM PM      PM PM   PM   PM
                   |----3----|       -----                    |----3----|
  S  S  S  S E  E  Q    Q    Q               S  S  S  S E  E  Q    Q    Q
----------------------------------|-------|----------------------------------|
----------------------------------|-------|----------------------------------|
----------------------------------|-------|----------------------------------|
--0--0--0-------0--0----0----0----|-------|--3--3--3-------3--3----3----3----|
--0--0--0-------0--0----0----0----|-------|--3--3--3-------3--3----3----3----|
--0--0--0-------0--0----0----0----|-------|--3--3--3-------3--3----3----3----|


          PM PM PM      PM PM   PM   PM
  -----                    |----3----|       -----
          S  S  S  S E  E  Q    Q    Q
-------|----------------------------------|-------|
-------|----------------------------------|-------|
-------|----------------------------------|-------|
-------|--8--8--8-------8--8----8----8----|-------|
-------|--8--8--8-------8--8----8----8----|-------|
-------|--8--8--8-------8--8----8----8----|-------|


   PM PM PM      PM  PM    PM   PM
                     |-----3----|
   S  S  S S E   E   Q     Q    Q
-------------------------------------|
-------------------------------------|
-------------------------------------|
--10-10-10------10--10----10----0----|
--10-10-10------10--10----10----0----|
--10-10-10------10--10----10----0----|


    mute and gradually slide from 5-9. let 9 ring out.
    NH                                                 NH  NH  NH  NH  NH  NH  N
    S                                                  S   S   S   S   S   S   S
---------------------------------------------------------------------------------|
---------------------------------------------------------------------------------|
---------------------------------------------------------------------------------|
----5------------------------------------------------<>5-<>5-<>5-<>7-<>7-<>7-<>7-|
--<>5------------------------------------------------<>5-<>5-<>5-<>7-<>7-<>7-<>7-|
--<>5------------------------------------------------<>5-<>5-<>5-<>7-<>7-<>7-<>7-|


  PM PM PM      PM PM   PM   PM              PM PM PM      PM PM   PM   PM
                   |----3----|       -----                    |----3----|
  S  S  S  S E  E  Q    Q    Q               S  S  S  S E  E  Q    Q    Q
----------------------------------|-------|----------------------------------|
----------------------------------|-------|----------------------------------|
----------------------------------|-------|----------------------------------|
--0--0--0-------0--0----0----0----|-------|--3--3--3-------3--3----3----3----|
--0--0--0-------0--0----0----0----|-------|--3--3--3-------3--3----3----3----|
--0--0--0-------0--0----0----0----|-------|--3--3--3-------3--3----3----3----|


          PM PM PM      PM PM   PM   PM
  -----                    |----3----|       -----
          S  S  S  S E  E  Q    Q    Q
-------|----------------------------------|-------|
-------|----------------------------------|-------|
-------|----------------------------------|-------|
-------|--8--8--8-------8--8----8----8----|-------|
-------|--8--8--8-------8--8----8----8----|-------|
-------|--8--8--8-------8--8----8----8----|-------|


   PM PM PM      PM  PM    PM   PM
                     |-----3----|
   S  S  S S E   E   Q     Q    Q       E.  E.  E  E   E  E   E
-------------------------------------|---------------------------|
-------------------------------------|---------------------------|
-------------------------------------|---------------------------|
--10-10-10------10--10----10----0----|--8---7---0--7p--5---------|
--10-10-10------10--10----10----0----|--8---7---0---------8p--5--|
--10-10-10------10--10----10----0----|--8---7---0----------------|


  W                   W
-------------------|-------------------||
-------------------|-------------------||
-------------------|-------------------||
--0----------------|--L----------------||
--0----------------|--L----------------||
--0----------------|--L----------------||

Duration Legend
---------------
W - whole
H - half
Q - quarter
E - 8th
S - 16th
T - 32nd
X - 64th
. - note dotted
|-n-|  - n-tuplets


Tablature Legend
----------------
L - tied note
x - dead note
g - grace note
(n) - ghost note
> - accentuded note
NH - natural harmonic
AH - artificial harmonic
TH - tapped harmonic
SH - semi harmonic
PH - pitch harmonic
h - hammer on
p - pull off
b - bend
br - bendRelease
pb - preBend
pbr - preBendRelease
brb - bendReleaseBend
\n/ - tremolo bar dip
\n - tremolo bar dive
-/n - tremolo bar Release up
/n\ - tremolo bar inverted dip
/n - tremolo bar return
-\n - tremolo bar Release down
S - shift slide
s - legato slide
/ -  slide into from below or out of upwards
\ -  slide into from above or out of downwards
~ - vibrato
W - wide vibrato
tr - tril'
TP - tremolo picking
T - tapping
S - slap
P - pop
< - fade in
^ - brush up
v - brush down





Comments


Popular A Skylit Drive tabs & chords
Wires And The Concept Of Breathing 3 Bass Tabs
According To Columbus 1 Tabs
All It Takes For Your Dreams To Come True 1 Tabs
All-star Diaries Tabs
Eris And Dysnomia Tabs
Eva The Carrier Tabs
Hey Nightmare, Where Did You Get Them Teeth? 2 Tabs
My Disease 1 Tabs
Wires And The Concept Of Breathing Tabs
According To Columbus Ukulele


Song lyrics



↑ Back to top | Tablatures and chords are parodies/interpretations of the original songs. You may use it for private study, scholarship, research or language learning purposes only
© 2014 AZChords.com Contact us | Privacy policy | DMCA | Add/correct tabs | Request tabs | Top 50 tabs