>
 >
Knights Of The Round

Knights Of The Round Guitar Tabs

A Skylit Drive - Knights Of The Round chords, tabs, tablatures, lyrics

Guitar lessons | Add/correct | Request | Top 50 tabs Artists:  A B C D E F G H I J K L M N O P Q R S T U V W X Y Z 0-9

Knights Of The Round Guitar Tabs – A Skylit Drive

CD, Sheet music, Poster

Do you like Knights Of The Round? Share with your friends now
Bass TabsChordsTabsTabs v2Tabs v3Ukulele
pages/Arista-Lucena/226729694026830

+-pinch harmonic
*-palm mute
^-bend
\or/- slide
p-pull off
h-hammer
Intro-
GtrI
|-----------------------------------------------------------------------------|
|-----------------------------------------------------------------------------|
|-------14\12--12/14---14-14---14-12-14--14-14-14-14--14-14-14-14-17-17-17-17-|
|-8-7-0-----------------------------------------------------------------------|
|-8-7-0-12\10--10/12---12-12---12-10-12--12-12-12-12--12-12-12-12-15-15-15-15-|
|-8-7-0-----------------------------------------------------------------------|
                           ah....hah,,,,
|--------------------------------------------------------|
|--------------------------------------------------------|
|--------10/12-------------------------------------------|
|-8-7-0--------(0)-x-(0)-x-0~--0~--000000----0~---0~-----|
|-8-7-0---8/10-(0)-x-(0)-x-0~--0~--000000----0~---0~-----|
|-8-7-0--------(0)-x-(0)-x-0~--0~--000000----0~---0~-----|
                                   ******

GtrII
|-----------------------------------------------------------------------------|
|-----------------------------------------------------------------------------|
|-10-9-7-10\9---9/10---10-10---10-9-10---10-10-10-10--10-10-10-10-12-12-12-12-|
|-8--7-0---------------8--8--------------8--8--8--8---8--8--8--8--10-10-10-10-|
|-8--7-0--8\7---7/8----8--8----8--7-8----8--8--8--8---8--8--8--8--10-10-10-10-|
|-8--7-0---------------8--8--------------8--8--8--8---8--8--8--8--10-10-10-10-|

|---------------------------------------------------------|
|---------------------------------------------------------|
|-10-9-7---10/12------------------------------------------|
|-8--7-x--------(0)-x-(0)-x-0~--0~------------0~---0~-----|
|-8--7-5---8/10-(0)-x-(0)-x-0~--0~--000000----0~---0~-----|
|-8--7-0--------(0)-x-(0)-x-0~--0~--000000----0~---0~-----|
                                    ******
Verse-
GtrI
|----------10-----------------------10-------------------|
|-13-10-------13---13-------13-10-------13-----13--------|
|-------10------10---10-----------10-------10------------|
|--------------------------------------------------------|3x
|--------------------------------------------------------|
|--------------------------------------------------------|

|----------10-----------------------|
|-13-10-------13---13----13---------|
|-------10------10---10-----10------|
|-----------------------------------|
|-----------------------------------|
|-----------------------------------|

GtrII
|-13-------12---------------13------12-------------------|
|----10-------10---13----------10-------10-----13--------|
|-------10------10---10-----------10-------10------------|
|--------------------------------------------------------|3x
|--------------------------------------------------------|
|--------------------------------------------------------|

|-13-------12-----------------------|
|----10-------10---13----13---------|
|-------10------10---10-----10------|
|-----------------------------------|
|-----------------------------------|
|-----------------------------------|


Chorus-0
GtrI2x
|--------------------------------------------------------|
|--------------------------------------------------------|
|-1414141414-1414~-----121212-1414-121212-1414~----------|
|--------------------------------------------------------|
|-1212121212-1212~-----101010-1212-101010-1212~----------|
|--------------------------------------------------------|

|-----------------------------------------------------------|
|-----------------------------------------------------------|
|-10/12-12\14-7--10/12-12\14-7--10/12-12-12--10/12-12-12-7--|
|-----------------------------------------------------------|
|-8-/10-10\12-5---8/10-10\12-5---8/10-10-10---8/10-10-10-5--|
|-----------------------------------------------------------|

|----------------------------------|
|----------------------------------|
|------------------7-7-7-7--7^+----|
|-7777-10101010--------------------|
|----------------------------------|
|----------------------------------|
  **** * * * *    * * * *

GtrII2x
|--------------------------------------------------------|
|--------------------------------------------------------|
|-1010101010-1010~-----121212-1212-121212-1212~----------|
|--------------------------------------------------------|
|-8-8-8-8-8--8-8-~-----101010-1010-101010-1010~----------|
|--------------------------------------------------------|

|-----------------------------------------------------------|
|-----------------------------------------------------------|
|-14/12--12/10-7-14/12--12/10-7-14/12-12-12--14/12-12-12-7--|
|-----------------------------------------------------------|
|-12/10--10/8--5-12/10--10/8--5-12/10-10-10--12/10-10-10-5--|
|-----------------------------------------------------------|

|----------------------------------|
|----------------------------------|
|---------------------------7^+----|
|-----------------10101010---------|
|-8888-10101010--------------------|
|----------------------------------|
  **** * * * *    * * * *
Interlude-
GtrI
|--------------------------------------------------------|
|--------------------------------------------------------|
|--------------------------------------------------------|
|------------------------88888888------------------------|
|-00-00-00----00-00-00---88888888---00-00-00----00-00-00-|
|-00-00-00----00-00-00---88888888---00-00-00----00-00-00-|
  ** ** **    ** ** **              ** ** **    ** ** **
GtrII2x

|-------------------18----17----17--15h17p15-------------|
|-15----15-18----15----15----15---------------18~--------|
|----18-------18-----------------------------------------|
|--------------------------------------------------------|
|--------------------------------------------------------|
|--------------------------------------------------------|

|-------------------18----17----17-----------------------|
|-15----15-18----15----15----15-----14~------------------|
|----18-------18-----------------------------------------|
|--------------------------------------------------------|
|--------------------------------------------------------|
|--------------------------------------------------------|

Do Intro
Do verse
Do Chorus-
GtrI
|----------------------------------------------------------------|
|----------------------------------------------------------------|
|----------------------------------------------------------------|
|----------------------------------------------------------------|2x
|-00-00-00-------------33-33-33----------88-88-88-1010-1010-1010-|
|-00-00-00-------------33-33-33----------88-88-88-1010-1010-1010-|
  ** ** **             ** ** **          ** ** ** * *  *  *  * *
|----------------------------------|
|----------------------------------|
|---------------------------7^+----|
|-7777-10101010---7-7-7-7----------|
|----------------------------------|
|----------------------------------|
  **** * * * *    * * * *
GtrII
|----------------------------------------------------------------|
|----------------------------------------------------------------|
|----------10/1212/1414\10-10----------12-10-10--1212-1414/15----|
|----------------------------------------------------------------|
|-00-00-00-8-/1010/1212\8--8--33-33-33-12-8--8---1010-1212/13----|
|-00-00-00--------------------33-33-33---------------------------|
  ** ** **                    ** ** **
|--------------------------------------------------------|
|--------------------------------------------------------|
|---------------------------------------------------7^+--|
|------------------------------------------8-8-8-8-------|
|-88-88-88-1010-1010-1010---888--10101010----------------|
|-88-88-88-1010-1010-1010--------------------------------|
  ** ** ** * *  *  *  * *   **** * * * *   * * * *

end

|--------------------------------------------------------|
|--------------------------------------------------------|
|--------10/12-------------------------------------------|
|-8-7-0--------(0)-x-(0)-x-0~----------------------------|
|-8-7-0---8/10-(0)-x-(0)-x-0~----------------------------|
|-8-7-0--------(0)-x-(0)-x-0~----------------------------|





Comments


Popular A Skylit Drive tabs & chords
Past The Love The Memories Bass Tabs
All It Takes For Your Dreams To Come True Chords
According To Columbus Tabs
According To Columbus 1 Tabs
According To Columbus 2 Tabs
Eris And Dysnomia Tabs
Fuck The System Tabs
Hey Nightmare, Where Did You Get Them Teeth? Tabs
See You Around Tabs
Wires And The Concept Of Breathing 1 Tabs


Song lyrics



↑ Back to top | Tablatures and chords are parodies/interpretations of the original songs. You may use it for private study, scholarship, research or language learning purposes only
© 2014 AZChords.com Contact us | Privacy policy | DMCA | Add/correct tabs | Request tabs | Top 50 tabs