>
 >
Those Cannons Could Sink A Ship

Those Cannons Could Sink A Ship Guitar Tabs

A Skylit Drive - Those Cannons Could Sink A Ship chords, tabs, tablatures, lyrics

Guitar lessons | Add/correct | Request | Top 50 tabs Artists:  A B C D E F G H I J K L M N O P Q R S T U V W X Y Z 0-9

Those Cannons Could Sink A Ship Guitar Tabs – A Skylit Drive

CD, Sheet music, Poster

Do you like Those Cannons Could Sink A Ship? Share with your friends now
TabsTabs v2
Pls. Comment/rate :) thanks...


SHC
09283150081

A Skylit Drive - Those Cannons Could Sink a Ship 

Tuning Drop C#

x-dead string
/-slide
~-let ring
*-palm mute
+-harmonic
D-with delay


2 parts-

A;GtrI
B:GtrII

A:Gtr I
Intro-

|--------------------------------------------|  |---------------|
|--------------------------------------------|  |---------------|
|-------9-6666-9-9/11-13-14------------------|  |---------------|
|-2-4-x-x-xxxx-x-x-x--x--x--77-777-99-999----|2x|-2-4~-2-4-2-4--|
|-2-4-x-7-4444-7-7/9--11-12-77-777-77-777----|  |-2-4~-2-4-2-4--|
|-2-4-x---------------------77-777-66-666----|  |-2-4~-2-4-2-4--|

Verse-
|---------------------------------------------------------------|
|-15-----------12-----------10-----------10-----------9---------|
|-x--(16x)-----x--(16x)-----x--(16x)-----x--(8x)------x--(8x)---|
|-12-----------9------------7------------7------------6---------|2x
|---------------------------------------------------------------|
|---------------------------------------------------------------|

Refrain-
|--------------------------------------------------------------------------------|
|--------------------------------------------------------------------------------|
|--------------------------------------------------------------------------------|
|-44----4---44----4-77----7---2-----------22-------------------------------------|
|-44-44-4-4-44-44-4-77-77-7-4---4-2-0-----22-22222222222222----------------------|
|-44-44-4-4-44-44-4-77-77-7-----------4-0-22-22222222222222-000-222-777-666-6-7+-|
     **   *    **      **                    **************                 *

|--------------------------------------------------------------------------------|
|--------------------------------------------------------------------------------|
|--------------------------------------------------------------------------------|
|-44----4---44----4-77----7---7-6---------22-------------------------------------|
|-44-44-4-4-44-44-4-77-77-7-4-----7-4-----22-22222222222222----------------------|
|-44-44-4-4-44-44-4-77-77-7-----------7-6-22-22222222222222-000-222-777-666-6-7+-|
     **   *    **      **                    **************                 *

|---------------------------------------------------------------|
|---------------------------------------------------------------|
|----------------------14141414141414141414141414141414---------|
|---------------------------------------------------------------|
|----------------------12121212121212121212121212121212---------|
|-000-222-777-666-6-7-------------------------------------------|
                  *

Chorus-(i'm not very sure @ this part)
|----------------------------------------------|
|----------------------------------------------|
|-----------------66-6666----------------------|
|-4--2-4-2-4-77-7-77-7777-9999~-222-xx-222-----|2x
|-4--2-4-2-4-77-7-77-7777-7777~-222-xx-222-----|
|-4--2-4-2-4-77-7----xxxx-6666~-222-xx-222-----|

|---------------------------------------------------------|
|---------------------------------------------------------|
|-14-1414-14-14--99-99-99-9-6/9-9-x-6/6---4/6-4-x-4/6-----|
|---------------------------------x-------------x---------|
|-12-1212-12-12--77-77-77-7-4/7-7-x-4/4---2/4-2-x-2/4-----|
|---------------------------------------------------------|


|--------------------------------------|
|--------------------------------------|
|---------------6666-------------------|
|-4--2-4-2-4-77-7777-99999~-2222-2222~-|
|-4--2-4-2-4-77-7777-77777~-2222-2222~-|
|-4--2-4-2-4-77-xxxx-66666~-2222-2222~-|

Bridge-
|------------------------------------------------|  |--------|
|------------------------------------------------|  |--------|
|-----1111----1313------1414---------------------|  |--------|
|------------------------------------------------|2x|--------|
|-000-9-9--00-1111--000-1212---------------------|  |--------|
|-000------00-------000------444-777-222-444-----|  |-00000--|
  ***      **       ***                               *****

|------------------------------------------------|  |------------------|
|------------------------------------------------|  |------------------|
|-----1111----1313------1414---------------------|  |------------------|
|------------------------------------------------|2x|------------------|
|-000-9-9--00-1111--000-1212---------------------|  |------------------|
|-000------00-------000------444-777-222-444-----|  |-444-777-222-444--|
  ***      **       ***                              

Bridge-2
|---------------------------------------------------------------|
|---------------------------------------------------------------|
|---------------6~---------------------------6------------------|
|-0~---------------7~-------0-0000~-------------7---------------|
|-0~------------------------0-0000~-----------------------------|
|-0~------------------------0-0000~-----------------------------|
                       
Bridge3-
|------14----12~----------------------------------------------|
|---12----12-12~----------------------------------------------|
|---14-------------13h14p13------------13h14p13---------------|
|----------------------------11/14p11-----------11/14p11------|
|-------------------------------------------------------------|
|-------------------------------------------------------------|
   


|-------14----12~--------------------------------------------------|
|-12-------12-12~--------------------------------------------------|
|---14-------------13h14p13------------13h14p13-----------13h14D---|
|----------------------------11/14p11-----------11/14p11-----------|
|------------------------------------------------------------------|
|------------------------------------------------------------------|

|-------14----12~--------------------------------------------------|
|-12-------12-12~---------------------15D--14D--------12~---12~----|
|---14-------------13h14p13--------------------14/11D---14~----14~-|
|----------------------------11/14p11------------------------------|
|------------------------------------------------------------------|
|------------------------------------------------------------------|


|--------------------------------------------------|
|--------------------------------------------------|
|---13h14p13------------13h14p13-------------------|
|------------11/14p11-----------11/14p11D----------|
|--------------------------------------------------|
|--------------------------------------------------


|--------------------------------------|
|-15D~-14D~-------15D~-14D~------------|
|----------14D~------------14D~--------|
|--------------------------------------|2x
|--------------------------------------|
|--------------------------------------|

Repeat Chorus-

|----------------------------------------------|
|----------------------------------------------|
|-----------------66-6666----------------------|
|-4--2-4-2-4-77-7-77-7777-9999~-222-xx-222-----|2x
|-4--2-4-2-4-77-7-77-7777-7777~-222-xx-222-----|
|-4--2-4-2-4-77-7----xxxx-6666~-222-xx-222-----|

|--------------------------------------------------|
|-14141414-111111111/13-9-9-9-9-9/11-8-8-8-8/9-----|
|--------------------------------------------------|2x
|-12121212-9-9-9-9-9/11-7-7-7-7-7/9--6-6-6-6/7-----|
|--------------------------------------------------|
|--------------------------------------------------|

end with F#
|-----|
|-----|
|-11~-|
|-----|
|-9~--|
|-----|


B:GtrII

Intro-

|---------------------------------------------|  |---------------|
|---------------------------5-5--55-----------|  |---------------|
|-------9999-11-9/7--6-4----6-6--66-----------|  |---------------|
|-2-4-x-xxxx-x--x-x--x-x----7-7--77-9-9--99---|2x|-2-4~-2-4-2-4--|
|-2-4-x-7777-9--7/5--4-2----7-7--77-7-7--77---|  |-2-4~-2-4-2-4--|
|-2-4-x-----------------------------6-6--66---|  |-2-4~-2-4-2-4--|

Verse-
|-----------------------------------------------------------|
|-3------------0----------------0--------------0------------|
|-2------------1----------------2--------------1------------|
|-0---(8x)-----0--(8x)----------2-(8x)---------2-(8x)-------|2x
|-0------------0----------------0--------------0------------|
|-0------------0----------------0--------------0------------|

Refrain-
|-------------------------------------------------------------------------------------|
|-------------------------------------------------------------------------------------|
|-------------------------------------------------------------------------------------|
|-44----4---44----4-77----7-7-11-7----------22----------------------------------------|
|-44-44-4-4-44-44-4-77-77-7--------11-7-----22-22222222222222-------------------------|
|-44-44-4-4-44-44-4-77-77-7------------11-7-22-22222222222222-000-666-121212-666-6-7+-|
     **   *    **      **                      **************                    *
|-------------------------------------------------------------------------------------|
|-------------------------------------------------------------------------------------|
|-------------------------------------------------------------------------------------|
|-44----4---44----4-77----7-7-11-7----------22----------------------------------------|
|-44-44-4-4-44-44-4-77-77-7--------11-7-----22-22222222222222-------------------------|
|-44-44-4-4-44-44-4-77-77-7------------11-7-22-22222222222222-000-666-121212-666-6-7+-|
     **   *    **      **                      **************                    *
|---------------------------------------------------------------|
|---------------------------------------------------------------|
|--------------------------1111111111111111-13131313-9999-------|
|---------------------------------------------------------------|
|--------------------------9-9-9-9-9-9-9-9--11111111-7777-------|
|--000-666-121212-666-6-7+--------------------------------------|
                      *

Chorus-(i'm not very sure @ this part)
|----------------------------------------------|
|----------------------------------------------|
|-----------------66-6666----------------------|
|-4--2-4-2-4-00-0-77-7777-9999~-222-xx-222-----|2x
|-4--2-4-2-4-00-0-77-7777-7777~-222-xx-222-----|
|-4--2-4-2-4-00-0----xxxx-6666~-222-xx-222-----|

|-----------------------------------------------|
|-----------------------------------------------|
|-----------------------------------------------|
|-4--44-4-4---000-0-0---777-7-7--222-x-222------|
|-4--44-4-4---000-0-0---777-7-7--222-x-222------|
|-4--44-4-4---000-0-0---777-7-7--222-x-222------|


|--------------------------------------|
|---------------5555-------------------|
|---------------6666-------------------|
|-4--2-4-2-4-00-7777-99999~-2222-2222~-|
|-4--2-4-2-4-00-7777-77777~-2222-2222~-|
|-4--2-4-2-4-00-xxxx-66666~-2222-2222~-|

Bridge-
|------------------------------------------------|  |--------|
|------------------------------------------------|  |--------|
|-----1414----1616------1414---------------------|  |--------|
|------------------------------------------------|2x|--------|
|-000-1212-00-1414--000-1212---------------------|  |--------|
|-000------00-------000------444-666-555-444-----|  |-00000--|
  ***      **       ***                               *****

|------------------------------------------------|  |------------------|
|------------------------------------------------|  |------------------|
|-----1414----1616------1414---------------------|  |------------------|
|------------------------------------------------|2x|------------------|
|-000-1212-00-1414--000-1212---------------------|  |------------------|
|-000------00-------000------444-666-555-444-----|  |-444-666-555-444--|
  ***      **       ***                               
                             

Bridge-2
|---------------------------------------------------------------|
|---------------------------------------------------------------|
|---------------------------------------------------------------|
|-0~------------------------0-0000~-----------------------------|
|-0~------------------------0-0000~-----------------------------|
|-0~------------------------0-0000~-----------------------------|
                       
Bridge3-
|--------------------------------------------------------------------|
|--------------------------------------------------------------------|
|----4-4-4-4-4-4-4-4-2-2-2-2-2-2-2-2-0-0-0-0-0-0-0-0-2-2-2-2-2-2-2-2-|
|----4-4-4-4-4-4-4-4-2-2-2-2-2-2-2-2-0-0-0-0-0-0-0-0-2-2-2-2-2-2-2-2-|
|-44-4-4-4-4-4-4-4-4-2-2-2-2-2-2-2-2-0-0-0-0-0-0-0-0-2-2-2-2-2-2-2-2-|
  **

|-----------------------------------------------------------------|
|-----------------------------------------------------------------|
|-4-4-4-4-4-4-4-4-2-2-2-2-2-2-2-2-0-0-0-0-0-0-0-0-2-2-2-2-2-2-2-2-|
|-4-4-4-4-4-4-4-4-2-2-2-2-2-2-2-2-0-0-0-0-0-0-0-0-2-2-2-2-2-2-2-2-|
|-4-4-4-4-4-4-4-4-2-2-2-2-2-2-2-2-0-0-0-0-0-0-0-0-2-2-2-2-2-2-2-2-|

|--------------------------------------------------|
|--------------------------------------------------|
|--------------------------------------------------|
|-0~-----------------------------------------------|
|-0~-----------------------------------------------|
|-0~-----------------------------------------------|



Repeat Chorus-

|----------------------------------------------|
|----------------------------------------------|
|-----------------66-6666----------------------|
|-4--2-4-2-4-00-0-77-7777-9999~-222-xx-222-----|2x
|-4--2-4-2-4-00-0-77-7777-7777~-222-xx-222-----|
|-4--2-4-2-4-00-0----xxxx-6666~-222-xx-222-----|


|----------------------------------------------|
|----------------------------------------------|
|----------------------------------------------|
|-44~-4-4--00~-0-0--77~-7-7--22~-2-2-----------|2x
|-44~-4-4--00~-0-0--77~-7-7--22~-2-2-----------|
|-44~-4-4--00~-0-0--77~-7-7--22~-2-2-----------|

end with F#
|-----|
|-----|
|-----|
|-4~--|
|-4~--|
|-4~--|





Comments


Popular A Skylit Drive tabs & chords
All It Takes For Your Dreams To Come True Bass Tabs
See You Around Bass Tabs
This Isnt The End Bass Tabs
According To Columbus Chords
According To Columbus 1 Tabs
All-star Diaries Tabs
Eva The Carrier Tabs
Ex Marks The Spot Tabs
Past The Love The Memories 1 Tabs
Xo Skeleton Tabs


Song lyrics



↑ Back to top | Tablatures and chords are parodies/interpretations of the original songs. You may use it for private study, scholarship, research or language learning purposes only
© 2014 AZChords.com Contact us | Privacy policy | DMCA | Add/correct tabs | Request tabs | Top 50 tabs