» » »

A Skylit Drive, Too Little Too Late Tabs (ver.1)

Artists:  A B C D E F G H I J K L M N O P Q R S T U V W X Y Z # 

Too Little Too Late Tabs (ver.1)

A Skylit Drive Tabs
Rating:
0/5 (0 votes)
Too Little Too Late lessons Tabs too difficult? Try these video lessons and learn fast
                To Little, To Late
A Skylit Drive
C#G#C#F#A#D#

Intro
|-------------------------------------------|
|-------------------------------------------|
|-------------------------------------------|
|-5-x12-9-9-9-7-7-7-5-5-5-9-9-9-7-7-7-5-5-5-|
|-3-----------------------------------------|
|-------------------------------------------|

Pre Verse
|-----------------------------------|
|-----------------------------------|
|-11/9---11/9---11---12---14-----5*-|
|-----x8-----x8---x4---x8---x8---5*-|
|-9-/7---9-/7---9----10---12-----5*-|
|--------------------------------5*-|

Verse
|--------------------------------|
|--------------------------------|
|--------------------------------|
|-2----5----0-----7----5----4----|
|-2-x8-5-x8-0-x8--7-x4-5-x4-4-x4-| x2
|-2----5----0-----7----5----4----|

Repeat Intro
Chorus
|-------------------------------------------|
|-------------------------------------------|
|-11/9---11/9---11---12---14---9---7-----5*-|
|-----x8-----x8---x4---x8---x8--x8--x8---5*-|
|-9-/7---9-/7---9----10---12---7---5-----5*-|
|----------------------------------------5*-|

Repeat Verse
Repeat Intro
Chorus
|------------------------------------------------|
|------------------------------------------------|
|-11/9---11/9---11---12---14---9---7---12---14---|
|-----x8-----x8---x4---x8---x8--x8--x8---x8---x8-|
|-9-/7---9-/7---9----10---12---7---5---10---12---|
|------------------------------------------------|

|-----------------------------------|
|-----------------------------------|
|-11/9---11/9---11---12---14---9----|
|-----x8-----x8---x4---x8---x8----7-|
|-9-/7---9-/7---9----10---12---7--5-|
|-----------------------------------|

Breakdown
|----------------------------------|
|----------------------------------|
|----------------------------0-----|
|------------5-----------------4---|
|-0-xlots--0-3-0---0-xlots-7-----7-|
|-0--------0---0---0---------------|

Bridge
|------------------------------------------------|
|------------------------------------------------|
|------------------------------------------------|
|-5-x8-7-x8-9-x8-12-x8-11-x8-5-x8-7-x8-2----5----|
|-3----5----7----10----9-----3----5----2-x8-5-x8-|
|--------------------------------------2----5----|

Chorus
|------------------------------------------------|
|------------------------------------------------|
|-11/9---11/9---11---12---14---9---7---12---14---|
|-----x8-----x8---x4---x8---x8--x8--x8---x8---x8-|
|-9-/7---9-/7---9----10---12---7---5---10---12---|
|------------------------------------------------|

|-12---14---15---17---21--------|
|-------------------------------|
|-------------------------------|
|-------------------------/-/-/-|
|-------------------------/-/-/-|
|-------------------------/-/-/-|

Repeat Breakdown
End On
|---|
|---|
|---|
|-2-|
|-2-|
|-2-|
            
Submit corrections

comments powered by Disqus
↑ Back to top | A Skylit Drive Tabs for Too Little Too Late. Lyrics for acoustic guitar and electric guitar. Tablatures and chords are parodies/interpretations of the original songs. You may use it for private study, scholarship, research or language learning purposes only