» » »

Arch Enemy, Carry The Cross Tabs (ver.3)

Artists:  A B C D E F G H I J K L M N O P Q R S T U V W X Y Z # 

Carry The Cross Tabs (ver.3)

Arch Enemy Tabs
 Rating:
4/5 (6 votes)
Carry The Cross lessons Tabs too difficult? Try these video lessons and learn fast
1
                Tuning - Drop C (C G C F A D)

Intro
(0:00 - 0:15) x4
|----------------------------------------------------|
|----------------------------------------------------|
|-14-14-14-14-14-14-14-14-14--12-12-12-12--10-10-9-9-|
|----------------------------------------------------|
|-12-12-12-12-12-12-12-12-12--10-10-10-10--8--8--7-7-|
|----------------------------------------------------|

(0:16 - 0:30) x4
|----------------------------------|
|----------------------------------|
|----------------------------------|
|----------------------------------|
|-------------------------44444444-|
|-000000002222888855555555---------|

Verse
(0:31 - 1:18) x3
|-------3--------5--------2--------3--------3--------6---------------------|
|-------------------------------------------------------------6------4-3---|
|-----5--------5--------5--------5--------5--------5--------5--------------|
|---5--------5--------5--------5--------5--------5--------5--------5-------|
|-3--------3--------3--------3--------3--------3--------3--------3---------|
|--------------------------------------------------------------------------|

(1:19 - 1:33) x2
|--------------------------------------------------------------------------|
|--------------------------------------------------------------------------|
|-15-15-15--14-14-14--12-12--15-15-15--14-14-14--12-12---------------------|
|------------------------------------------------------888-777-55-22222222-|
|-13-13-13--12-12-12--10-10--13-13-13--12-12-12--10-10-888-777-55-22222222-|
|------------------------------------------------------888-777-55-22222222-|

Chorus
(1:34 - 1:49) x4
|----------------------------------|
|----------------------------------|
|----------------------------------|
|----------------------------------|
|-------------------------44444444-|
|-000000002222888855555555---------|

Verse
(1:50 - 2:20) x2
|-------3--------5--------2--------3--------3--------6---------------------|
|-------------------------------------------------------------6------4-3---|
|-----5--------5--------5--------5--------5--------5--------5--------------|
|---5--------5--------5--------5--------5--------5--------5--------5-------|
|-3--------3--------3--------3--------3--------3--------3--------3---------|
|--------------------------------------------------------------------------|

(2:21 - 2:35) x2
|--------------------------------------------------------------------------|
|--------------------------------------------------------------------------|
|-15-15-15--14-14-14--12-12--15-15-15--14-14-14--12-12---------------------|
|------------------------------------------------------888-777-55-22222222-|
|-13-13-13--12-12-12--10-10--13-13-13--12-12-12--10-10-888-777-55-22222222-|
|------------------------------------------------------888-777-55-22222222-|

Chorus
(2:36 - 2:51) x4
|----------------------------------|
|----------------------------------|
|----------------------------------|
|----------------------------------|
|-------------------------44444444-|
|-000000002222888855555555---------|

Solo
(2:52 - 3:06) x2
|--------------------------------|
|--------------------------------|
|--------------------------------|
|-8-10-12--7-8-10--7-8-10--5-7-8-|
|--------------------------------|
|--------------------------------|

(3:07 - 3:22) x2
|--------------------------------|
|--------------------------------|
|-7-9-10--10-9-7--7-9-10-10--9-9-|
|--------------------------------|
|--------------------------------|
|--------------------------------|

Not sure about the rest of the solo. I will figure it out soon though.

Chorus
(3:38 - 3:53) x4
|----------------------------------|
|----------------------------------|
|----------------------------------|
|----------------------------------|
|-------------------------44444444-|
|-000000002222888855555555---------|

(3:54 - 4:10) x4
|----------------------------------|
|----------------------------------|
|----------------------------------|
|----------------------------------| Mike Amott is playing this
|-------------------------44444444-|
|-000000002222888855555555---------|

|----------------------------------------------------|
|----------------------------------------------------|
|-14-14-14-14-14-14-14-14-14--12-12-12-12--10-10-9-9-|
|----------------------------------------------------| Chris Amott is
|-12-12-12-12-12-12-12-12-12--10-10-10-10--8--8--7-7-| playing this
|----------------------------------------------------|

Awesome song, awesome album, awesome band. Like I said, I will figure out the rest of 
solo. KEEP ON ROCKIN' IN THE FREE WORLD!
            
Submit corrections

comments powered by Disqus
↑ Back to top | Arch Enemy Tabs for Carry The Cross. Lyrics for acoustic guitar and electric guitar. 1 Tablatures and chords are parodies/interpretations of the original songs. You may use it for private study, scholarship, research or language learning purposes only