» » »

Arch Enemy, We Will Rise Tabs (ver.1)

Artists:  A B C D E F G H I J K L M N O P Q R S T U V W X Y Z # 

We Will Rise Tabs (ver.1)

Arch Enemy Tabs
 Rating:
4/5 (4 votes)
We Will Rise lessons Tabs too difficult? Try these video lessons and learn fast
1
                b:bend
.:Palm Mute
T:Tap
Tuning:C (2 whole steps down)

|-------------------------------------------|
|-------------------------------------------|
|-13----14----12---9--9---8-----------------|
|--X-----X-----X---x--x---x-----------------|
|-11----12----10---7--7---6-----------------|
|-------------------------------------------|

ok i don't know how many times you strike the string since there playing at an ok speed so i just gave you the string numbers you figure out how many times you gotta hit them lol

|-----------------------------------------------------|
|-----------------------------------------------------|
|-----------------------------------------------------|
|-----------------------------------------------------|
|-----------5h7------------------------5h7------------|
|--12/5-5h7-----0-0-10--0-8-0-0-7--5h7----------------|
                . .     .   . . 
sorry i don't know this part to well to hard for me to hear it

Solo 1
|-------------8-6-----------------------------|
|-------------------------------10-8----------|
|---------7-----------------7-----------------|
|------8-----------------8--------------------|
|-10-----------------10-----------------------|
|---------------------------------------------|
   .   .  .           .  .  .


|---------------------------------------------|
|--------------11--10----11--10--8--11--10----|
|---------7-----------------------------------|
|------8--------------------------------------|
|-10------------------------------------------|
|---------------------------------------------|
   .   .  .

|-------------8b-6-----------------------------|
|-------------------------------10b-8----------|
|---------7-----------------7------------------|
|------8-----------------8---------------------|
|-10-----------------10------------------------|
|----------------------------------------------|
   .   .  .           .  .  .

|------------------------18-17-15-18-17-15-18-17-15-18-17-15-20b-|
|--------------11b--10-------------------------------------------|
|---------7------------------------------------------------------|
|------8---------------------------------------------------------|
|-10-------------------------------------------------------------|
|----------------------------------------------------------------|
   .   .  .
solo 2
|-----10--12b-----10--12b----15-14------10----|
|--12----------12--------------------12-------|
|---------------------------------------------|
|---------------------------------------------|
|---------------------------------------------|
|---------------------------------------------|
        T        T                         
|-???---17p15p12-17p15p12---17b-17-15-14-----------------|
|----------------------------------------17-15-----------|
|------------------------------------------------14b-12--|
|--------------------------------------------------------|
|--------------------------------------------------------|
|--------------------------------------------------------|

i don't have all the parts on this so i ?'s(sound's like an effects pedal but what do i know lol) i dunno how many times you do the taps but if you got the song you know how all this sounds

Enjoy my crackhead tab lol :-P
and the tapping is i dunno how many times?
            
Submit corrections

comments powered by Disqus
↑ Back to top | Arch Enemy Tabs for We Will Rise. Lyrics for acoustic guitar and electric guitar. 1 Tablatures and chords are parodies/interpretations of the original songs. You may use it for private study, scholarship, research or language learning purposes only