>
 >
Enemy Within

Enemy Within Guitar Tabs

Arch Enemy - Enemy Within chords, tabs, tablatures, lyrics

Guitar lessons | Add/correct | Request | Top 50 tabs Artists:  A B C D E F G H I J K L M N O P Q R S T U V W X Y Z 0-9

Enemy Within Guitar Tabs – Arch Enemy

CD, Sheet music, Poster

Do you like Enemy Within? Share with your friends now
TabsTabs v2Tabs v3Tabs v4
ARCH ENEMY - ENEMY WITHIN                      From the Album WAGES OF SIN
                         
Transcripted by-220conibear  

- palm mute                  /  - slide up to
\  - slide down to              ~  - vibrato
"  - tremelo picking           ( ) - ghost note
b  - bend                       h  - hammer-on
fb - full bend (1 step)         p  - pull-off
hb - half bend (1/2 step)       r  - release a bend
t  - tapping                    ah - artificial harmonicTune Gtr to C
--E N E M Y  W I T H I N--(Piano arranged for 2 guitars)
|---------15----------14----------17----------15------------14--|
|-----17----------17----------17----------17------------17------|
|-16----------16----------16----------16------------16----------|
|---------------------------------------------------------------|
|-14------------------------------------------------------------|
|---------------------------------------------------------------||
|---------15----------14----------17----------14------------14--|
|-----17----------17----------17----------17------------17------|
|-16----------16----------16----------16------------16----------|
|---------------------------------------------------------------|
|-15----------------------17----------15------------------------|
|---------------------------------------------------------------|
Repeat till fade out & guitars fade in w/volume swell on E5 chordRiff A
|---------------------------------|----------------------------------|
|---------------------------------|----------------------------------|
|---------------------------------|----------------------------------|Gtrs
|---------------------------------|----------------------------------|I&II
|---------------------------------|----------------------------------|
|-000---000---0000---000---00000--|-000---000---0000---000---00000---|
| ...   ...   ....   ...   .....    ...   ...   ....   ...   .....
|---------------------------------|----------------------------------|
|---------------------------------|----------------------------------|
|---------------------------------|----------------------------------|Gtrs
|---------------------------------|----------------------------------|I&II
|---------------------------------|----------------------------------|
|-000---000---0000---000---00000--|-000---000---0000---000---0000/x\-|
  ...   ...   ....   ...   .....    ...   ...   ....   ...   ....
Riff B                                                               2tx
|------------------------------------|----------------------------------|
|------------------------------------|----------------------------------|
|------------------------------------|----------------------------------|Gtr
|------------------------------------|----------------------------------| I
|--------------------3333--55555-----|----------------------3333--55555-|
|-000---000---0000-------------------|-000---000---0000-----------------|
| ...   ...   ....   ....  .....       ...   ...   ....     ....  .....
|                                                                    3tx
|------------------------------------|----------------------------------|
|-0-0-0-8-0-0-7-0-0-10-0-0-8-0-0-7h8-|-0-0-8-0-0-7-0-0-10-0-0-8-0-0-7h8-|
|------------------------------------|----------------------------------|Gtr
|------------------------------------|----------------------------------| II
|------------------------------------|----------------------------------|
|------------------------------------|----------------------------------|
| . . . . . . . . .  . . . . . .       . . . . . . . .  . . . . . .
|B.1                                                                 2tx
|------------------------------------|----------------------------------|
|------------------------------------|----------------------------------|
|------------------------------------|----------------------------------|Gtr
|------------------------------------|----------------------------------| I
|-----------3"----5"-----------------|-3"----5"-------------------5"----|
|-0"--------------------0"-----------|-------------3"---2"---0"---------|
| .         .     .     .              .     .     .    .    .    .
|                                                                    3tx
|------------------------------------|----------------------------------|
|-0-0-0-8-0-0-7-0-0-10-0-0-8-0-0-7h8-|-0-0-8-0-0-7-0-0-10-0-0-8-0-0-7h8-|
|------------------------------------|----------------------------------|Gtr
|------------------------------------|----------------------------------| II
|------------------------------------|----------------------------------|
|------------------------------------|----------------------------------|Fill 1
|----------------------------||----------------------------|
|----------------------------|Gtr|-5-(5)----------------------| I
|-3-(3)---------2----2-------||---------------0----3-------||
|----------------------------||-8~---10-8-7___8_7----------|
|-------------h--p-----9~----|Gtr|----------------------------| II
|----------------------------||----------------------------||
|---------------------12~----||-12~--13-12-10_12_10--------|
|--------------h--p----------|Gtr|----------------------------| III
|----------------------------||----------------------------|Riff C
|---------------------------|--------------------------|
|---------------------------|--------------------------|
|---------------------------|--------------------------|Gtrs I
|---------------------------|--------------------------|  & II
|---77----8----10----8----7-|---55----3----2-----------|
|-0-----0----0-----0----0---|-0-----0----0----0-5--0-4-||
|---------------------------|--------------------------|
|---------------------------|--------------------------|
|---------------------------|--------------------------|Gtrs I
|---------------------------|--------------------------|  & II
|---77----8----10----8----7-|---55----3----------------|
|-0-----0----0-----0----0---|-0-----0----0-4310-4310---|
|                                          .... ....
|---------------------------|--------------------------|
|---------------------------|--------------------------|
|---------------------------|--------------------------|Gtrs I
|---------------------------|--------------------------|  & II
|---77----8----10----8----7-|---55----3----2-----------|
|-0-----0----0-----0----0---|-0-----0----0----0-5--0-4-||
|---------------------------|--------------------------|
|---------------------------|-10----9------------------|
|---------------------------|------------10---9--7-----|Gtr I
|---------------------------|-----------------------10-|
|---77----8----10----8----7-|--------------------------|
|-0-----0----0-----0----0---|--------------------------||
|---------------------------|--------------------------|
|---------------------------|--------------------------|
|---------------------------|-10----9----7-------------|Gtr II
|---------------------------|-----------------10--9--7-|
|---77----8----10----8----7-|--------------------------|
|-0-----0----0-----0----0---|--------------------------|Riff C 1txRiff D
|-----------------------------------------------|
|-----------------------------------------------|
|-5------5-----5-----5----4----4----4----4----5-|Gtrs I
|-2------2-----2-----2----2----2----2----2----2-|  & II
|----00----00----00----00---00---00---00---00---|
|-----------------------------------------------|
|    ..    ..    ..    ..   ..   ..   ..   ..
|-----------------------------------------------|
|-----------------------------------------------|
|----5-----5-----5----------------------5*------|Gtrs I
|----2-----2-----2-------7-7----9-9-----2*------|  & II
|-33----33----33------33-5-5----7-7-------------|
|-----------------------------------------------|  ..    ..    ..      ..
*Pickup note.Riff D   1txRiff C   2txRiff D   2txRiff B.1 1txFill 2
|----------15-16-15-13-12--------------------------------------------------|
|-8tr9--------------------13-12--------------------------------------------|
|-------------------------------14-12--------------------------------------|Gtr
|-------------------------------------14-13--------------------------------| I
|-------------------------------------------15-14-12-----------------------|
|----------------------------------------------------15-14-12_0------------|
|                                                            p
|-7tr8-----11-12-11--------------------------------------------------------|
|-------------------13-12--------------------------------------------------|
|-------------------------14-12--------------------------------------------|Gtr
|-------------------------------15-14--------------------------------------| II
|-------------------------------------15-14-12-----------------------------|
|----------------------------------------------15-14-12-11--8_0------------|
|                                                            p
|--------------------------------------------------------------------------|
|--------------------------------------------------------------------------|
|--------------------------------------------------------------------------|Gtr
|-5--------4---------------------------------------------------------------| III
|-3--------2--------------------------------------------------2------------|
|-------------------------------------------------------------0------------|
Riff E                                                        2tx
|----------------------------------------------------------------|
|----------------------------------------------------------------|
|----------------------------------------------------------------|Gtrs
|----------------------------------------------------------------|I&II
|-5_8-7~---------5_8-7~---------5_8-7~----5_8-7~----5_8-7~-------|
|--h-------0"-----h-------0"-----h-----0"--h-----0"--h-----0"----|
           .              .            .         .         .
Riff F                                       1tx
|-----------------------------------------------|
|-----------------------------------------------|
|-----------------------------------5-------7---|Gtrs
|-2----------------2--------------5-------7-----|I&II
|-0--------3---5---0--------0-2-3-------5-------|
|----------1---3--------------------------------|
|                               Let ring
|F.1                                         1tx
|-----------------------------------------------|
|-----------------------------------------------|
|-----------------------------------5-------7---|Gtrs
|---------------------------------5-------7-----|I&II
|-0"--------------0"--------0-2-3-------5-------|
|-----------1"-3"-------------------------------|
  .         .  .  .             Let ringRiff D 2txRiff D.1
|-----------------------------------------------|
|-----------------------------------------------|
|-5------5-----5-----5----4----4----4----4----5-|Gtrs I
|-2------2-----2-----2----2----2----2----2----2-|  & II
|----00----00----00----00---00---00---00---00---|
|-----------------------------------------------|
|    ..    ..    ..    ..   ..   ..   ..   ..
|-----------------------------------------------|
|-----------------------------------------------|
|-----------------------------------------------|Gtr
|-10-------------10/12\10-9------------------10-|III
|-----------------------------------------------|
|--8--------------8/10\8--7-------------------8-||
|-----------------------------------------------|
|-----------------------------------------------|
|----5-----5-----5----------------------5*------|Gtrs I
|----2-----2-----2-------7-7----9-9-----2*------|  & II
|-33----33----33------33-5-5----7-7-------------|
|-----------------------------------------------|| ..    ..    ..      ..
|-----------------------------------------------|
|-----------------------------------------------|
|-----------------------------------------------|Gtr
|-----15-14---12-14-----------------------------|III
|-----------------------------------------------|
|-----13-12---10-12-----------------------------||
|-----------------------------------------------|
|-----------------------------------------------|
|-5------5-----5-----5----4----4----4----4----5-|Gtrs I
|-2------2-----2-----2----2----2----2----2----2-|  & II
|----00----00----00----00---00---00---00---00---|
|-----------------------------------------------|
|    ..    ..    ..    ..   ..   ..   ..   ..
|-----------------------------------------------|
|-----------------------------------------------|
|-----------------------------------------------|Gtr
|-10-------------10/12\10-9------------------10-|III
|-----------------------------------------------|
|--8--------------8/10\8--7-------------------8-||
|-----------------------------------------------|
|-----------------------------------------------|
|----5-----5-----5----------------------5*------|Gtrs I
|----2-----2-----2-------7-7----9-9-----2*------|  & II
|-33----33----33------33-5-5----7-7-------------|
|-----------------------------------------------|
| ..    ..    ..      ..                     2tx
|-----------------------------------------------|
|-----------------------------------------------|
|-----------------------------------------------|Gtr
|-----17-16---14-16-----------------------------| III
|-----------------------------------------------|
|-----15-14---12-14-----------------------------|Riff B.1 1txFill 3
|----------------------------||----------------------------|
|----------------------------|Gtr|-5--------------------------| I
|-3---------2---------2------||-----------0---------3------||
|----------------------------||-8tr9-10-8-7___8_7----------|
|-------------h--p----9~-----|Gtr|----------------------------| II
|----------------------------||----------------------------||
|-7tr8-10--8-7___8_7---------||--------------h--p--10~-----|
|----------------------------|Gtr|----------------------------|III
|----------------------------||----------------------------|Riff A 1txEnding
|----------------------------------------|
|----------------------------------------|
|----------------------------------------|Gtrs
|----------------------------------------|I&II
|--------------------------------2h3h5-2-|
|-000---000---0000---00000-3h5h7-------0-|
  ...   ...   ....   .....          [End!]





Comments


Popular Arch Enemy tabs & chords
Machtkampf Bass Tabs
Beast Of Man 2 Tabs
Dead Eyes See No Future 2 Tabs
Diva Satanica Tabs
Enemy Within 1 Tabs
I Am Legend Out For Blood 1 Tabs
Let The Killing Begin 1 Tabs
My Apocalypse 1 Tabs
Sinister Mephisto 1 Tabs
Stigmata Tabs


Song lyrics



↑ Back to top | Tablatures and chords are parodies/interpretations of the original songs. You may use it for private study, scholarship, research or language learning purposes only
© 2014 AZChords.com Contact us | Privacy policy | DMCA | Add/correct tabs | Request tabs | Top 50 tabs