» » »

Arch Enemy, Carry The Cross Bass tabs (ver.1)

Artists:  A B C D E F G H I J K L M N O P Q R S T U V W X Y Z # 

Carry The Cross Bass tabs (ver.1)

Arch Enemy Tabs
 Rating:
4/5 (4 votes)
Carry The Cross lessons Tabs too difficult? Try these video lessons and learn fast
1
                Band: Arch Enemy
Tuning: FCGC

Intro
F|---------------------|
C|---------------------| 
G|--1h2/5--------------|
C|--------0------------|

Chorus
F|----------------------------------------|
C|----------------------------------------| x3
G|----------------1111----------44444444--|
C|--00000000-2222------55555555-----------|

F|----------------------------------------|
C|----------------------------------------|
G|----------------1111----------3333------|
C|--00000000-2222------55555555-----------|

Verse
F|-----------------------------|
C|-----------------------------|
G|--3-33-33-33-33-33-33-33-33--|
C|-----------------------------|

F|-----------------------------------|
C|--------------------3--------------|
G|--1h2-33-333-333-33--2-33-333-333--|
C|-----------------------------------|

F|----------------------------------|
C|-----32---------------------------|
G|--33----2-33-333-333-3342-33-333--|
C|----------------------------------|

F|------------------|
C|--------34-3------|
G|--33456------4----|
C|------------------|

Verse 2 x2
F|-----------------------------|
C|-----------------------------|
G|-----------------------------|
C|--0-00-0-002-55-55-22-22-----|

Chorus x1

Verse 3
F|-----------------------------4-3--|
C|---------------------------3------|
G|--33-33-33-33-3\1-33-33-33--------|
C|----------------------------------|
F|--------------------------------------|
C|----------------3---------------------|
G|--33-333-333-33---2-33-333-333-33423--|
C|--------------------------------------|

F|------------------------------------3--|
C|----------------------------------3----|
G|--33-333-333-3342-33-333-333-33-4------|
C|---------------------------------------|

Verse 2 x2
Chorus x1

Bridge
F|----------------------------------|
C|----------------------------------| x2
G|----345---123---234---123---------|
C|--5-----0-----3-----0-------------|

F|---------------------------------------|
C|---------------------------------------|
G|--55555555-33333333-11111111-00000000--|
C|---------------------------------------|

F|--------------------------------------|
C|--------------------------------------|
G|--55555545-77777777-------------------|
C|--------------------8888888-77777777--|

F|--------------------------------------|
C|--------------------------------------|
G|--88888888-77777777-------------------|
C|--------------------8888888-77777777--|

F|------------------------------------------------------------|
C|------------------------------------------------------------|
G|--88888888-10-10-10-10-10-10-10-----------------------------|
C|--------------------------------11-11-11-11-11-11-11-11-10--|

Chorus x2
            
Submit corrections

comments powered by Disqus
↑ Back to top | Arch Enemy Bass for Carry The Cross. Lyrics for acoustic guitar and electric guitar. 1 Tablatures and chords are parodies/interpretations of the original songs. You may use it for private study, scholarship, research or language learning purposes only