» » »

Carry The Cross Bass tabs (ver.2)

Artists:  A B C D E F G H I J K L M N O P Q R S T U V W X Y Z # 

Carry The Cross Bass tabs (ver.2)

Arch Enemy
Rating:
0/5 (0 votes)

Hard to play? Try these video lessons and learn fast.
                
CARRY THE CROSS (Bassline)
As recorded by Arch Enemy
(From the 2005 Album DOOMSDAY MACHINE)

	

Words by Angela Gossow Music by Michael Amott, Daniel Erlandsson, Christopher Amott.

Gtr I (C F Bb Eb) - 'Untitled'
Gtr II (C F Bb Eb) - 'synth'

 Intro
  Q=125
 1/8 4/4
  Gtr I
  E   Wx3          H.      Q     W
|---|------------|------------|-------|
|---|------------|---------9s=|=14----|
|---|------------|------------|-------|
|---|------------|------------|-------|


   +H.       +Q     W          +H.      Q
|-----------------|----------|--------------|
|-(14)------(14)s=|=2--------|-(2)----------|
|-----------------|----------|--------------|
|-----------------|----------|----------7\--|


    S S S S S S S S S S S S S S S S   S S S S S S S S S S S S S S S S   4x
||----------------------------------|-----------------------------------||
||o---------------------------------|----------------------------------o||
||o-------------------------3-3-3-3-|-----------------6-6-6-6-6-6-6-6--o||
||--0-0-0-0-0-0-0-0-2-2-2-2---------|-5-5-5-5-5-5-5-5-------------------||


  Gtr II
   W           +W            +W            +H      H
|-----------|-------------|-------------|---------10----|
|-12--------|-(12)--------|-(12)--------|-(12)----------|
|-----------|-------------|-------------|---------------|
|-----------|-------------|-------------|---------------|


   E  E  +H.         +W            +W            +W
|-----------------|-------------|-------------|----------|
|-10-12-(12)------|-(12)--------|-(12)--------|-(12)\----|
|-----------------|-------------|-------------|----------|
|-----------------|-------------|-------------|----------|


   Verse
    Gtr I
    E E H.        E E H.       3x E E H.        E E H    Q
||--------------|--------------||-------------|---------------|
||o-------------|-------------o||-------------|---------------|
||o-5-5---------|-5-5---------o||-5-5---------|-5-5------0S===|
||--------------|--------------||-------------|---------------|


  E E E E E E E E   E E E E E E Q    E E E E E E E E   E E E E E E E E
|---------7-------|---------7------|---------7-------|-----------7-----|
|-----------------|----------------|-----------------|---------7---7---|
|-5-5---5---5---5-|-5-5---5---5s3--|-5-5---5---5---5-|-5-5---5-------5-|
|-----------------|----------------|-----------------|-----------------|


  E E E E E E E E   E E E E E E Q    E E E E E E E E   E E E E E E E E
|---------7-------|---------7------|---------7-------|---------7-5-----|
|-----------------|----------------|-----------------|-------5-----7-5-|
|-5-5---5---5---5-|-5-5---5---5s3--|-5-5---5---5---5-|-5-7-8-----------|
|-----------------|----------------|-----------------|-----------------|


 Pre Chorus
  E Q  E Q  E E   E E Q  E E E E   E Q  E Q  E E   E E Q  E E E E
|---------------|----------------|---------------|----------------|
|---------------|----------------|---------------|----------------|
|---------------|----------------|---------------|----------------|
|-1----1----1---|---1----1---3---|-5----5----5---|---2----2---2---|


  E E E E E E E E   E E E E E E E E   E E E E E E E E   E E E E Q  Q
|-----------------|-----------------|-----------------|---------------|
|-----------------|-----------------|-----------------|---------------|
|-----------------|-----------------|-----------------|---------------|
|-1-1-1-1-1-1-1-1-|-1-1-1-1-1-1-3-3-|-5-5-5-5-5-5-5-5-|-2-2-2-2-2--2--|


   Chorus
    S S S S S S S S S S S S S S S S   S S S S S S S S S S S S S S S S   4x
||----------------------------------|-----------------------------------||
||o---------------------------------|----------------------------------o||
||o-------------------------3-3-3-3-|-----------------6-6-6-6-6-6-6-6--o||
||--0-0-0-0-0-0-0-0-2-2-2-2---------|-5-5-5-5-5-5-5-5-------------------||


 Verse
  E E H.        E E H.        E E H.        E E Q.   E Q
|-------------|-------------|-------------|----------------|
|-------------|-------------|-------------|----------------|
|-5-5---------|-5-5---------|-5-5---------|-5-5------5s0S==|
|-------------|-------------|-------------|----------------|


  E E H.        E E H.        E E H.        E E Q.   E E E
|-------------|-------------|-------------|------------7---|
|-------------|-------------|-------------|----------7---7-|
|-5-5---------|-5-5---------|-5-5---------|-5-5------------|
|-------------|-------------|-------------|----------------|


  E E E E E E E E   E E E E E E Q    E E E E E E E E   E E E E E E E E
|---------7-------|---------7------|---------7-------|-----------7-----|
|-----------------|----------------|-----------------|---------7---7---|
|-5-5---5---5---5-|-5-5---5---5s3--|-5-5---5---5---5-|-5-5---5-------5-|
|-----------------|----------------|-----------------|-----------------|


  E E E E E E E E   E E E E E E Q    E E E E E E E E   E E E E E E E E
|---------7-------|---------7------|---------7-------|-------------5-7-|
|-----------------|----------------|-----------------|---------5-7-----|
|-5-5---5---5---5-|-5-5---5---5s3--|-5-5---5---5---5-|-5-5---5---------|
|-----------------|----------------|-----------------|-----------------|


 Pre Chorus
  E Q  E Q  E E   E E Q  E E E E   E Q  E Q  E E   E E Q  E E E E
|---------------|----------------|---------------|----------------|
|---------------|----------------|---------------|----------------|
|---------------|----------------|---------------|----------------|
|-1----1----1---|---1----1---3---|-5----5----5---|---2----2---2---|


                                                                |-3-|
  E E E E E E E E   E E E E E E E E   E E E E E E E E   E E E E Q Q Q
|-----------------|-----------------|-----------------|----------------|
|-----------------|-----------------|-----------------|----------------|
|-----------------|-----------------|-----------------|----------------|
|-1-1-1-1-1-1-1-1-|-1-1-1-1-1-1-3-3-|-5-5-5-5-5-5-5-5-|-2-2-2-2-2-2-2--|


   Chorus
    S S S S S S S S S S S S S S S S   S S S S S S S S S S S S S S S S   4x
||----------------------------------|-----------------------------------||
||o---------------------------------|----------------------------------o||
||o-------------------------3-3-3-3-|-----------------6-6-6-6-6-6-6-6--o||
||--0-0-0-0-0-0-0-0-2-2-2-2---------|-5-5-5-5-5-5-5-5-------------------||


   Bridge
    W          W          W          W
||-----------|----------|----------|-------||
||o----------|----------|----------|------o||
||o-0--------|----------|----------|------o||
||-----------|-0--------|-3--------|-2-----||


    W          W          W          W
||-----------|----------|----------|-------||
||o----------|----------|----------|------o||
||o-7--------|-5--------|-3--------|-2----o||
||-----------|----------|----------|-------||


 Lead - Michael Amott
   W          W          W          W
|-----------|----------|----------|------|
|-----------|----------|----------|------|
|-10--------|-8--------|-6--------|-5----|
|-----------|----------|----------|------|


   W          W          W          q  H.
|-----------|----------|----------|----------|
|-----------|----------|----------|----------|
|-10--------|-8--------|-6--------|-5--------|
|-----------|----------|----------|----------|


   Chorus/Outro
    S S S S S S S S S S S S S S S S   S S S S S S S S S S S S S S S S   7x
||----------------------------------|-----------------------------------||
||o---------------------------------|----------------------------------o||
||o-------------------------3-3-3-3-|-----------------6-6-6-6-6-6-6-6--o||
||--0-0-0-0-0-0-0-0-2-2-2-2---------|-5-5-5-5-5-5-5-5-------------------||


  S S S S S S S S S S S S S S S S   S S S S S S S S S S S S S S S S
|---------------------------------|---------------------------------*|
|---------------------------------|---------------------------------*|
|-------------------------3-3-3-3-|-----------------6-6-6-6-6-6-6-6-*|
|-0-0-0-0-0-0-0-0-2-2-2-2---------|-5-5-5-5-5-5-5-5-----------------*|



Duration Legend
---------------
W - whole; H - half; Q - quarter; E - 8th; S - 16th; T - 32nd; X - 64th; a - acciaccatura
+ - note tied to previous; . - note dotted; .. - note double dotted
Uncapitalized letters represent notes that are staccato (1/2 duration)
Irregular groupings are notated above the duration line
Duration letters will always appear directly above the note/fret number it represents the
duration for.  Duration letters with no fret number below them represent rests.  Multi-
bar rests are notated in the form Wxn, where n is the number of bars to rest for.  Low
melody durations appear below the staff

Tablature Legend
----------------
 h   - hammer-on
 p   - pull-off
 b   - bend
 pb  - pre-bend
 r   - bend release (if no number after the r, then release immediately)
 /\  - slide into or out of (from/to "nowhere")
 s   - legato slide
 S   - shift slide
 - natural harmonic
[n]  - artificial harmonic
n(n) - tapped harmonic
 ~   - vibrato
 tr  - trill
 T   - tap
 TP  - trem. picking
 PM  - palm muting
\n/  - tremolo bar dip; n = amount to dip
 \n  - tremolo bar down
 n/  - tremolo bar up
/n\  - tremolo bar inverted dip
 =   - hold bend; also acts as connecting device for hammers/pulls
 <> - volume swell (louder/softer)
 x   - on rhythm slash represents muted slash
 o   - on rhythm slash represents single note slash

Misc Legend
-----------
 |  - bar
||  - double bar
||o - repeat start
o|| - repeat end
*|  - double bar (ending)
 :  - bar (freetime)
 $  - Segno
 &  - Coda
Tempo markers -  = BPM(8/16=s8/s16), where s8 = swing 8ths, s16 = swing 16ths
            
Hard to play? Try these video lessons and learn fast. | Correct




comments powered by Disqus
↑ Back to top | Tablatures and chords are parodies/interpretations of the original songs. You may use it for private study, scholarship, research or language learning purposes only